Oops, an error
Loading. Please wait.

El Perrito De 8 Sucres tab

26 views 1 this week
no commentswrite comment
1 2 3 4 5
3 more votes to show rating
add to favorites
×
Save as Personal and add changes to this tab that will be seen only by you. Learn more ›
×
You can save this tab as Personal to edit and correct it or add notes. All changes will be seen only by you. Learn more »
launch autoscroll
font size
0
reset
how to read this tab
guitar tuner
edit
Autoscroll
slow
fast
+/-
esc
set tempo
stop
ESTE ES UNO DE MIS GRUPOS FAVORITOS
Y LO MEJOR ES QUE SON ECUATORIANOS

INTRO
                                                 ----|
e|--------------------------------------------------||
B|--------------------------------0------2---0------||
G|--------------------------------------------------||
D|-----2------4---2----------2-----2----------2-----||
A|--0-----0----------0------------------------------||
E|--------------------------------------------------||se repite
                                                     |3 veces
e|-----------------------------------------|         |
B|--------------------------0----2--0------|         |
G|-----------------------------------------|         |
D|-----2------4---2-----2----2--------2----|         |
A|---0----0---------0----------------------|         |
E|-----------------------------------------|         |
                                                 ----|
e|----------------------------------------------------|
B|----------------------------------------------------|
G|-----2------4---2-----------------------------------|
D|--0----0------------0--------2-------4---2----------|
A|--------------------------0-------0------------0----|
E|----------------------------------------------------|

NOTAS:
    A          E          D
e|-5---|   e|-7---|   e|-5---|
B|-5---|   B|-9---|   B|-7---|
G|-6---|   G|-9---|   G|-7---|
D|-7---|   D|-9---|   D|-7---|
A|-7---|   A|-7---|   A|-5---|
E|-5---|   E|-7---|   E|-5---|


A   E   ( se repite 4 veces)

   A                E
Pasaba por el mercado
    A                E
Cuando acerté al mirarlo
 D             A             E
En medio de veinte como el apretados

    A               E
Ese del fondo del cesto (señora)
    A               E
dije comprarlo yo quiero
       D         A            E
Y me pidió ocho digo trato hecho


Coro
(la 2 guitarra toca en quintas y
con distorsión pero solo en el coro)

 D     A     E
Y mi amigo fiel
           A     E
Siempre serás
         A      E
Para jugar
            A       E
Con mi soledad
            A       E
me haces sonreír

            A     E
y que sea feliz
    A             E
Con mi perrito de 8 Sucres
    A             E
Con mi perrito de 8 Sucres
    A             E
Con mi perrito de 8 Sucres

A   E   ( se repite 4 veces)

   A                E
Y cuando mueve su cola
    A                E
Alegre me dice hola
D                     A             E
Si el mundo es gris Viniendo a mi lo mejora
    A               E
Patitas, cola de nieve
    A               E
Camina conmigo siempre
       D         A            E
Espérame, voy a volver a las siete

Coro
(la 2 guitarra toca en quintas y
con distorsión pero solo en el coro)

 D     A     E
Y mi amigo fiel
           A     E
Siempre serás
         A      E
Para jugar
            A       E
Con mi soledad
            A       E
me haces sonreír

            A     E
y que sea feliz
    A             E
Con mi perrito de 8 Sucres
    A             E
Con mi perrito de 8 Sucres
    A             E
Con mi perrito de 8 Sucres
(regae mas lento)
A   E   ( se repite 4 veces)
   A                E
rápido fue mi regreso  [pero]
    A                E
que es lo que en la calle veo
D                     A             E
mi perrito, duerme bajo de unas ruedas
    A               E
yo lo compré en ocho sucres  (y ahora)
    A               E
su cama y su rincón sufren
       D         A            E
y en mi jardín duerme sin fin no lo dudes

Coro

 D     A     E
Y mi amigo fiel
           A     E
Siempre serás
         A      E
Para jugar
            A       E
Con mi soledad
            A       E
me haces sonreír

            A     E
y que sea feliz
    A             E
Con mi perrito de 8 Sucres
    A             E
Con mi perrito de 8 Sucres

e|--------------------------------------------------||
B|--------------------------------0------2---0------||
G|--------------------------------------------------||
D|-----2------4---2----------2-----2----------2-----||
A|--0-----0----------0------------------------------||
E|--------------------------------------------------||se repite
                                                     |2 veces
e|-----------------------------------------|         |
B|--------------------------0----2--0------|         |
G|-----------------------------------------|         |
D|-----2------4---2-----2----2--------2----|         |
A|---0----0---------0----------------------|         |
E|-----------------------------------------|         |
                                                 ----|
e|----------------------------------------------------|
B|----------------------------------------------------|
G|-----2------4---2-----------------------------------|
D|--0----0------------0--------2-------4---2----------|
A|--------------------------0-------0------------0----|
E|----------------------------------------------------|


ESTA CANCION LA SAQUE GRACIAS
A LA DIANITA QUE ME A ACOLITADO
EN TODO...
PERO TODO SE LO DEBO A MI PRECIOSA
EDDA TE AMO...
PICA  PICATE... JAJAJAJA...

            
            
Suggest correction
Creating personal tab
Creating personal tab
You can edit any tab online and save it as your Personal.

You can edit, replace or remove any tab part or add personal notes – all changes will be seen only by you.

Personal tabs can be accessed anytime from any device, even offline.
Learn more »
Give kudos to tab author, rate the tab!
1 2 3 4 5
comments
print report bad tab
guest
Wanna post a correction for this tab? Suggest correction