Oops, an error
Loading. Please wait.

Nifty tab

44 views 1 this week
no commentswrite comment
1 2 3 4 5
3 more votes to show rating
add to favorites
×
Save as Personal and add changes to this tab that will be seen only by you. Learn more ›
×
You can save this tab as Personal to edit and correct it or add notes. All changes will be seen only by you. Learn more »
launch autoscroll
font size
0
reset
how to read this tab
guitar tuner
edit
Autoscroll
slow
fast
+/-
esc
set tempo
stop
                         Chulpi&Tostado   Nifti
Album:No somos los mismos
BUeno esta es mi 3ra transcripcion y esta 99% bn oigan la cancion  y le
entienden bn el ritmo...La letra esta genial disfrutenla please calikenla
gracias.........
PD: Si desean alguna cancion de ellos pidanmela al mail pa sakarla bye
Cualquier duda o comentario a:  christmas_lug@
INTRO:
             C         (tOKAR aKORD)             C            Em
e|-----------------------------------------------------------------------|
B|------------1-0-------1-1-1-1-1-1--------------1-0---------------------|
G|------0---0-----0------------------------0---0-------------------------|
D|----2---2-------------2-2-2-2-2-2------2---2---------0---2-2-2-2-2-2---|
A|--3---------3-3-------3-3-3-3-3-3----3---------3-3-------2-2-2-2-2-2---|
E|-----------------------------------------------------------------------|

                Em             Am               Am             G/B
e|--------------------------------------------------------3-3-3-3-3-3-|
B|-------------1-0-------1-1-1-1-1-1---------------1-0----3-3-3-3-3-3-|
G|-------0---0-----------2-2-2-2-2-2---------2---2--------------------|
D|-----2---2---------0---2-2-2-2-2-2-------2---2----------------------|
A|---2---------2-2-----------------------0---------0-0----2-2-2-2-2-2-|
E|--------------------------------------------------------------------|


              Cuando las mentiras    se acaben  y no tenga mas que decir
e|------------------------------------------------------------------------|
B|-------1-----------1----------0-----------0-----------1-----------1-----|
G|-----0---0-------0---0------0---0-------0---0-------2---2-------2---2---|
D|---2-------2---2------2---2-------2---2-------2---2-------2---2-------2-|
A|-3-----------3----------2-----------2-----------0-----------0-----------|
E|------------------------------------------------------------------------|

      no digas ni una palabra
e|--------------------------------|
B|------------------------3-------|
G|---5-4-3-4~~--5-4-3-4-5---5~~---|
D|--------------------------------|
A|--------------------------------|
E|--------------------------------|
              no  volvere  a  escucharte     talvez esto es mejor asi
e|------------------------------------------------------------------------|
B|-------1-----------1----------0-----------0-----------1-----------1-----|
G|-----0---0-------0---0------0---0-------0---0-------2---2-------2---2---|
D|---2-------2---2------2---2-------2---2-------2---2-------2---2-------2-|
A|-3-----------3----------2-----------2-----------0-----------0-----------|
E|------------------------------------------------------------------------|
  caminare lejos de aqui
e|--------------------------|
B|--------3-----------3-----|
G|------0---0-------0---0---|
D|----2-------2---2-------2-|
A|--0-----------0-----------|
E|--------------------------|


      C5                   E5                 Am                   G/B
e |---------------------------------------------------------333333--33---|
B |-------------------------------------1111--11111111------333333--33---|
G |--5555--55555555---------------------2222--22222222-------------------|
D |--5555--55555555---2222--22222222----2222--22222222-------------------|
A |--3333--33333333---2222--22222222------------------------222222--22---|
E |-------------------0000--00000000-------------------------------------|
CORO:
                    C5
No existe un camino mas que me haga ver igual
                    E5
que ayer las ilusiones de poder tenerte como soñe
                    C5
No existen palabras  que te diga sin saber
    Am                                  G/B
que me duele mas perderte como tu nunca lo haras


      Y ya no sera asi   no estare mas aqui   las fuerzas el tiempo mi
e|-----------------------------------------------------------------------|
B|------1-----------1----------0-----------0-----------1-----------1-----|
G|----0---0-------0---0------0---0-------0---0-------2---2-------2---2---|
D|---2------2---2------2---2-------2---2-------2---2-------2---2-------2-|
A|-3----------3----------2-----------2-----------0-----------0-----------|
E|-----------------------------------------------------------------------|
    vida se han ido junto
e|--------------------------|
B|--------3-----------3-----|
G|------0---0-------0---0---|
D|----2-------2---2-------2-|
A|--0-----------0-----------|
E|--------------------------|

        a ti      solo queda tu voz  tu mirada en mi    corazon es tiempo
e|------------------------------------------------------------------------|
B|-------1-----------1----------0-----------0-----------1-----------1-----|
G|-----0---0-------0---0------0---0-------0---0-------2---2-------2---2---|
D|---2-------2---2------2---2-------2---2-------2---2-------2---2-------2-|
A|-3-----------3----------2-----------2-----------0-----------0-----------|
E|------------------------------------------------------------------------|

G/B
de decir adios
CORO:
                   C5
No existe un camino mas que me haga ver igual
                    E5
que ayer las ilusiones de poder tenerte como soñe
                    C5
No existen palabras  que te diga sin saber
     Am                             G/B
que me duele mas perderte como tu nunca lo haras


*SOLO*  (Sta facil--....ahi sta)
e|----------------6/8--888-7-8-7~---5--5/7~--7-5-7-5-3~---3/7~--7-5-7-5-|
B|-------4-6-5-6--------------------------------------------------------|
G|-3h4h5----------------------------------------------------------------|
D|----------------------------------------------------------------------|
A|----------------------------------------------------------------------|
E|----------------------------------------------------------------------|

e|-5-4-2-4----------------6/8--13-13-13-13-12-13-12-10~--10/12~---|
B|----------------4-6-5-6-----------------------------------------|
G|----------3h4h5-------------------------------------------------|
D|----------------------------------------------------------------|
A|----------------------------------------------------------------|
E|----------------------------------------------------------------|

e|-12-10--12-10-8-8/12~---12-10-12-10-8-7-----10-8-7-8~---|
B|--------------------------------------------------------|
G|--------------------------------------------------------|
D|--------------------------------------------------------|
A|--------------------------------------------------------|
E|--------------------------------------------------------|

CORO:(Repite)

Eso es todo amigos.....suerte....

            
            
Suggest correction
Creating personal tab
Creating personal tab
You can edit any tab online and save it as your Personal.

You can edit, replace or remove any tab part or add personal notes – all changes will be seen only by you.

Personal tabs can be accessed anytime from any device, even offline.
Learn more »
Give kudos to tab author, rate the tab!
1 2 3 4 5
comments
print report bad tab
guest
Wanna post a correction for this tab? Suggest correction