Oops, an error
Loading. Please wait.

No Somos Los Mismos tab

12 views 3 this week
no commentswrite comment
1 2 3 4 5
3 more votes to show rating
add to favorites
×
Save as Personal and add changes to this tab that will be seen only by you. Learn more ›
×
You can save this tab as Personal to edit and correct it or add notes. All changes will be seen only by you. Learn more »
launch autoscroll
font size
0
reset
how to read this tab
guitar tuner
edit
Autoscroll
slow
fast
+/-
esc
set tempo
stop
Chulpi&Tostado   No somos los mismos de ayer
Album:No somos los mismos

BUeno esta es mi 5ta transcripcion y esta 99.99% bn oigan la cancion
La rola esta super facil solo son puras quintas y ya
bueno  disfrutenla please calikenla gracias.........
PD: Si desean alguna cancion de ellos pidanmela al mail pa sakarla bye
Cualquier duda o comentario a:  christmas_lug@

INTRO:(AFINACION STANDARD)

        F5          G5          A#5         C5
e|-------------------------------------------------------|
B|-------------------------------------------------------|
G|-----3-2-3-2------3-2-3-2------3-2-3-2---5--3-2-3-2----|
D|--3--3---------5--3---------8--3---------5--3----------|
A|--3------------5------------8------------3-------------|
E|--1------------3------------6--------------------------|
        F5          G5          A#5         C5
e|-------------------------------------------------------|
B|-------------------------------------------------------|
G|-----3-2-3-2------3-2-3-2------3-2-3-2---5-5-----------|
D|--3--3---------5--3---------8--3---------5-3-----------|
A|--3------------5------------8------------3-3-----------|
E|--1------------3------------6--------------------------|

ESTRIBILLOS (DEBES TOCARLOS ASI...)
          F5            A#5            D5              C5
e|------------------------------------------------------------|
B|------------------------------------------------------------|
G|--------------------------------7-x--7-7-7-7---5-5---55-5x--|
D|--3-x--3-3-3-3----8-x--8-8-8----7-x--7-7-7-7---5-5---55-5x--|
A|--3-x--3-3-3-3----8-x--8-8-6----5-x--5-5-5-5---3-3---33-3x--|
E|--1-x--1-1-1-1----6-x--6-6-6--------------------------------|

ESTRIBILLO1:
  F5              A#5
Todos los errores pasaron
    D5                 C5
no somos los mismos de ayer no no nooo
 F5              A#5
no gires en la hipocresia
 D5                    C5
tan solo encuentra tu el porque....

    F5    A#5   D5    C5      F5    A#5   D5    C5
e|-------------------------------------------------|
B|-------------------------------------------------|
G|--------------7-x---5-5-5---------------7-x---5X-|
D|--3-x---8-x---7-x---5-5-5---3-x---8-x---7-x---5X-|
A|--3-x---8-x---5-x---3-3-3---3-x---8-x---5-x---3X-|
E|--1-x---6-x-----------------1-x---6-x------------|


      CORO:
 F5        A#5        D5          C5
Noooooooooooooooooooooo, no somos los mismooos
 F5        A#5        D5          C5
Noooooooooooooooooooooo, no somos los mismooos
 F5        A#5        D5            C5             A#5
Noooooooooooooooooooooo, no somos los mismos de ayeeer

    A#5    A5  G5  F5
e|---------------------------|
B|---------------------------|
G|---------------------------|
D|----8x--8---7---5---3------|
A|----8x--8---7---5---3------|
E|----6x--6---5---3---1------|


ESTRIBILLO2:
  F5                  A#5
Las fabulaciones de falso amor
  D5                  C5
dejaron una huella que no borrara
 F5                  A#5
todo en ti es una mentira
 D5                  C5
todo en ti depende con que terquedad

CORO:
 F5        A#5        D5          C5
Noooooooooooooooooooooo, no somos los mismooos
 F5        A#5        D5          C5
Noooooooooooooooooooooo, no somos los mismooos
 F5        A#5        D5            C5             A#5
Noooooooooooooooooooooo, no somos los mismos de ayeeer

      A#5    A5  G5  F5
e|---------------------------|
B|---------------------------|
G|---------------------------|
D|----8x--8---7---5---3------|
A|----8x--8---7---5---3------|
E|----6x--6---5---3---1------|


REPITES QUINTAS :

(  F5   A#5  D5   C5 ) X2 VECES

Y FINALIZAS CON ESTO...
e|---------------------------|
B|---------------------------|
G|---------------------------|
D|----8x--8---7---5---3------|
A|----8x--8---7---5---3------|
E|----6x--6---5---3---1------|

Y LISTOP AHI ESTA ESTA CANCION SI NECESTAN
alguna otra rola me piden y la saco
Pucha lo mas cagado de esta cancion entender que decian
cierto tramos no se entendian..jajaja =)

PD: Si desean alguna cancion de ellos pidanmela al mail pa sakarla bye
Cualquier duda o comentario a:  christmas_lug@

Eso es todo amigos.....suerte....lycankeops =)

            
            
Suggest correction
Creating personal tab
Creating personal tab
You can edit any tab online and save it as your Personal.

You can edit, replace or remove any tab part or add personal notes – all changes will be seen only by you.

Personal tabs can be accessed anytime from any device, even offline.
Learn more »
Give kudos to tab author, rate the tab!
1 2 3 4 5
comments
print report bad tab
guest
Wanna post a correction for this tab? Suggest correction