Oops, an error
Loading. Please wait.

Tubthumping tab

version 3
version 3

Whole song

Interactive

5,773 views 3 this week
7 commentsread comments
1 2 3 4 5
x 13
add to favorites
×
Save as Personal and add changes to this tab that will be seen only by you. Learn more ›
×
You can save this tab as Personal to edit and correct it or add notes. All changes will be seen only by you. Learn more »
launch autoscroll
font size
0
reset
how to read this tab
guitar tuner
backing track
0:00
0:00
edit
Autoscroll
slow
fast
+/-
esc
set tempo
stop
Author
Difficulty
This song really only has one guitar part but ill include a guitar solo where the sax solo is.
~~~~~~~~~~~~~~~
R- Let it ring
~~~~~~~~~~~~~~~

  I Get Knocked Down!
e|-----------------------------------------------------|
B|-----------------------------------------------------|
G|--------------7-----------7-----------7--------------|
D|--------------7-----5-----7-----5-----7-----5-----7--|
A|--------------5-----5-----5-----5-----5-----5-----7--|
E|--------------------3-----------3-----------3-----5--|
                R     R     R     R     R     R     R

Sax Solo (Making it Guitar solo)

e|----------------------------17-|--------------------|
B|--15-------------15------------|--15-------15-15-15-|
G|-----14-14--11------14-14------|-----12-12----------|
D|-------------------------------|--------------------|
A|-------------------------------|--------------------|
E|-------------------------------|--------------------|x2
               R               R
After that solo ends like this

e|-----|
B|--17-|
G|-----|
D|-----|
A|-----|
E|-----|
     R

  That's it!             
       

            
            
Suggest correction
Creating personal tab
Creating personal tab
You can edit any tab online and save it as your Personal.

You can edit, replace or remove any tab part or add personal notes – all changes will be seen only by you.

Personal tabs can be accessed anytime from any device, even offline.
Learn more »
comments
print report bad tab
7 comments total. Showing first comments.
0 reply
Pope Zeppelin 10 Nov 22, 2006 03:10 AM

you mean repeat the 2 TIMES and the solo ends on 17 yes. 5 stars!

e|--------------------|
B|--15-------15-15-15-|
G|-----12-12----------|

0 reply
face_melter77 52 Nov 23, 2006 05:53 AM

5 Stars

+2 reply
no1flyhalf 61 Nov 21, 2007 07:25 PM

you
have:
e|----------------------------17-|
B|--15-------------15------------|
G|-----14-14--11------14-14------|
D|---
----------------------------|
When it should
be:
e|----------------------------17-|
B|--15-14----------15-14---------|
G|--------14--11---------14------|
D|-----
--------------------------|

guest
You may want to rate the tab now too:
select rating
Wanna post a correction for this tab? Suggest correction