Oops, an error
Loading. Please wait.

Milf Tab

version 1
version 1

Whole song

Interactive

5,644 views 3 this week
2 commentsread comments
1 2 3 4 5
x 3
add to favorites
launch autoscroll
font size
0
reset
how to read this tab
guitar tuner
Autoscroll
slow
fast
+/-
esc
set tempo
stop
Help us to improve Ultimate-Guitar.com Take our survey!
×
Author
Difficulty
Tuning
intermediate
A# F A# D# G C
Song: Milf
Artist: Chunk! No Captain Chunk

Tabbed by: the_extreme

Hey guys! This is a rough tab, but I figured because nothing else is on here, I'd post 
what I have. So here is what I have so far, here's a video of me playing the song:

http://www.youtube.com/watch?v=oB8xEZOJN_I

Comment on the video if you want me to tab another chunk song, I will if I can hahah.
Anyway ENJOY!

C |----------------------|
G |--7-77-8s7-7-77-8s7---|
D#|--7-77-7---7-77-7-----|
A#|--5-55-5---5-55-5-----|
F |----------------------|
A#|----------------------|

then

C |------------------------------------------|
G |--7-77-7s8--8-88-8s7-7-77-7s8-8-88--------|
D#|--7-77-7----7-77-7-7-7-77-7---7-77--------|
A#|--5-55-5----5-55-5-5-5-55-5---5-55--------|
F |------------------------------------------|
A#|------------------------------------------|

C |-----------------10p7-10---|
G |----7-10p7-7---7-----------|
D#|--77-7----7--77-7----7-----|
A#|---------------------------|
F |---------------------------|
A#|---------------------------|
    **  *    *  ** *    *

(The best sex I ever had... (0:18))

C |-----------------------------|
G |-----------------------------|
D#|-----------------------------| (2x)
A#|--55555555-0000000---7---7---| (Second time without "7's")
F |--55555555-0000000---7---7---|
A#|--55555555-0000000-777-777---|
                      **  **
   Guitar 1
C |-------------------|
G |---15----15----15--|
D#|-----11----11--11--|
A#|-------------------|
F |-------------------|
A#|-00----00----00----|
    **    **    **
   Guitar 2
C |----------------------------------------------------|
G |---10--10----10--10----10---10--10----10--10----10--|
D#|-----11--11----11--11--11-----12--12----12--12--12--|
A#|----------------------------------------------------|
F |----------------------------------------------------|
A#|-00--------00--------00---00--------00--------00----|
    **        **        **   **        **        **

VERSE 1
TENTATIVE - Open to suggestions!

C |-----------------------------------|
G#|-----------------------------------|
D#|--777--77777777-777--444-----------|
A#|--777--77777777-777--444-555--777--|
F |--555--99999999-555--222-555--777--|
A#|-------------------------555--777--|
     **            **   **  **   **
 Guitar 1
C |----------------------|
G#|----------------------|
D#|----------------------|
A#|---4h5p4--4h5p4--7----|
F |----------------------|
A#|-00-----00-----00-----|
    **     **     **
 Guitar 2
C |----------------------|
G#|----------------------|
D#|----------------------|
A#|----------------------|
F |---545--545--7--------|
A#|-00---00---00---------|
    **   **   **

VERSE 1 part 2

C |-----------------------------|
G#|-----------------------------|
D#|-----------------------------|
A#|-999-555-777-999-555-777-999-|
F |-999-555-777-999-555-777-999-|
A#|-999-555-777-999-555-777-999-|
    **      **  **      **  **

CHORUS

C |-------------|
G#|-------------|
D#|-------7-----|
A#|-9--5--7--7--|
F |-9--5--5--7--|
A#|-9--5-----7--|


C |---------------------------------------|
G#|---------------------------------------|
D#|------------7777-----------------------|
A#|-0054500545-xxxx-00545-----------------|
F |-0054500545-5555-00545-----------5ah---|
A#|-0054500545------0054500090070050------|
    **   **         **   *** ** ** *

   (1:50)
C |---------------------------------------------------5nh-|
G#|---------------------------------------------------5nh-|
D#|---------------------------------------------------5nh-|
A#|-------------------------------------------------------|
F |-------------------------------------------------------|
A#|-000--000--000--000--000-000-000--000--000--000--00----|
    ***  ***  ***  ***  *** *** ***  ***  ***  ***  **

   (1:55)
C |-----------7-5h7p5----|
G#|---7-5--0---------7---|
D#|-77-7-77-77-7---------|
A#|----------------------| (4x)
F |----------------------| ( on third and fourth time, palm mute D# string)
A#|----------------------|

TENTATIVE - Open to suggestions


C |--------------------------|
G#|--------------------------|
D#|--------------------------|
A#|-0-0-7s9-5-7s9-7-4-7p4p0--|
F |-0-0-7s9-5-7s9------------|
A#|-0-0-7s9-5-7s9------------|

TENTATIVE - Open to suggestions
Not sure what to play but this chord sounds like it fits
C |----------------------|
G#|---------77777777-----|
D#|---------77777777-----|
A#|-----7h9-55555555-----|
F |--7h9-----------------|
A#|----------------------|

"Oh. My. God. (2:49)"
C |-----------------------------------------|
G#|-----------------------------------------|
D#|-----------------------------------------|
A#|-----------------------------------------|
F |-----------------------------------------|
A#|-000000-0000000000-000000-0000000000-000-|
    ****** ********** ****** ********** ***

 (3:00)
C |-------------------------------|
G#|-------------7~~~~------7~~~~--|
D#|--------------7~~~~------7~~~~-|
A#|--5--0~~~~---------------------|
F |--5--0~~~~---------------------|
A#|--5--0~~~~---------------------|

 (3:12)
C |---------------------------|
G#|---------------------------|
D#|---------------------------|
A#|----9--7--5--7ah-0~~~~-----|
F |----9--7--5------0~~~~-----|
A#|-0009007005------0~~~~-----|
    *** ** **
  (3:16)
C |--------------------------------------|
G#|--------------------------------------|
D#|--------------------------------------|
A#|---------5---5---------------5405405--|
F |---9-7-5-5---5---5p0---9-7-5-5405405--|
A#|-00-0-0--50005000----00-0-0--5405405--|
    ** * *   *** ***    ** * *
Repeat for rest of song, occasionally there is
a pinch harmonic on the "5p0"

ORIGIN:
s = Slide
ah = artificial harmonic/pinch harmonic
nh = natural harmonic
* = palm mute
~ = Let note ring
x = mute string
p = pull off
h = hammer on
Suggest correction
Give kudos to tab author, rate the tab!
1 2 3 4 5
comments
print report bad tab
2 comments total.
0 reply
andreuvila 109 Aug 06, 2011 07:37 AM

please, make a guitar pro tab of this song. it would be amazing ;)

0 reply
the_extreme 134 Aug 07, 2011 04:29 PM

I don't have guitar pro and idk how to use it either hahaha im sorry! :)

guest
You may want to rate the tab now too:
select rating
Wanna post a correction for this tab? Suggest correction