Oops, an error
Loading. Please wait.

Restart Tab

version 2
version 2

Intro

Interactive

9,289 views 18 this week
3 commentsread comments
1 2 3 4 5
accurate
x 4
add to favorites
launch autoscroll
font size
0
reset
how to read this tab
guitar tuner
Autoscroll
slow
fast
+/-
esc
set tempo
stop
Help us to improve Ultimate-Guitar.com Take our survey!
×
Author
Difficulty
Tuning
intermediate
A# F A# D# G C
-----------------------------------------------------------------------------
        Restart (opening two riffs / by ear) - CHUNK! NO, CAPTAIN CHUNK!
-----------------------------------------------------------------------------
Tabbed by: Cupid Reagan
E-mail:  cupidreagan@live.com
------------------------------
I'm like many, having to learn this song by ear, so I will either transpose
more as I get time, or I'll gladly take suggestions to revise this further.
------------------------------

Tuning: Drob A# (aka Drob Bb): 6=A#  5=F  4=A#  3=D#  2=G#  1=C

1|---------------------------------------|----------------------------------|
2|---------------------------------------|----------------------------------|
3|---------------------------------------|----------------------------------|
4|-------------7---7---------------------|-----------7----------------------|
5|---------9-------------7---------------|--------9----9--------------------|
6|--0-0--8-------9----6------5-0-0-0-0-0-|--0-0--8--------7--0-5-5-0-5-5-5--|
  pm---                          pm  pm   pm---                 pm pm  pm


1|--------------------------------------------------------------------------|
2|--------------------------------------------------------------------------|
3|--------------------------------------------------------------------------|
4|--12/0--0------------------------12-0--0----------------------------------|
5|--12/0--0------------------------12/0--0----------------------------------|
6|--12/0--0---0-0-0-0---0-0-0-0----12/0--0---0-0-0-0---0-4-0-4-0-5----------|
          #     pm---     pm---          #     pm---      p   p 


************************************
| /   slide up
| h   hammer-on
| p   pull-off
| #   Hard downstroke - full stop
************************************
Suggest correction
comments
print report bad tab
3 comments total.
0 reply
cupidreagan 16 wrote on May 3 2013, 05:07 pm

-------------------------------------------------------------------
Restart (opening two riffs / by ear) - CHUNK! NO, CAPTAIN CHUNK!
------------------------------------------------------------------------
Tabbed by: Cupid Reagan
E-mail: cupidreagan@live.com

I'm like many having to learn this song by ear, so I will either transpose more as I get time, or I'll gladly take suggestions to revise from here.

[edit] - I am only having some trouble getting the bridge figured out, now.
----------
Tuning: Drob A# (aka Drob Bb): 6=A# 5=F 4=A# 3=D# 2=G# 1=C

1|---------------------------------|-----------------------------------|
2|---------------------------------|-----------------------------------|
3|---------------------------------|-----------------------------------|
4|----------7---7------------------|-----------7-----------------------|
5|--------9----------7-------------|---------9---9---------------------|
6|-0-0--8-----9----6---5-0-0-0-0-0-|--0-0--8--------7--0-7-5-5-0-5-5-5-|
pm--- pm pm pm--- pm pm pm

1|-------------------------------|----------------------------------|
2|-------------------------------|----------------------------------|
3|-------------------------------|----------------------------------|
4|--12/0--0----------------------|--12/0--0-------------------------|
5|--12/0--0----------------------|--12/0--0-------------------------| x2
6|--12/0--0---0-0-0-0---0-0-0-0--|--12/0--0---0-0-0-0---0-4-0-4-0-5-|
# pm--- pm--- # pm--- p p

1|------------------------------------------------------------------|
2|------------------------------------------------------------------|
3|------------------------------------------------------------------|
4|-2-2-2-2-2-2-2-2-5-5-5-5-5-5-5-5-0-0-0-0-0-0-0-0-0-0-0-0-0-0-0-0--|
5|-2-2-2-2-2-2-2-2-5-5-5-5-5-5-5-5-0-0-0-0-0-0-0-0-0-0-0-0-0-0-0-0--| x2
6|-2-2-2-2-2-2-2-2-5-5-5-5-5-5-5-5-0-0-0-0-0-0-0-0-0-0-0-0-0-0-0-0--|


1|------------------|--------------------------------------------------|
2|------------------|--------------------------------------------------|
3|------------------|--------------------------------------------------|
4|-2-2-2-2-2-2-2-5--|--0-0-0-0-0-0-0-0-4-4-4-4-4-4-4-4-111111111111111-|
5|-2-2-2-2-2-2-2-5--|--0-0-0-0-0-0-0-0-4-4-4-4-4-4-4-4-9-9-9-9-9-9-9-9-|
6|-2-2-2-2-2-2-2-5--|--0-0-0-0-0-0-0-0-4-4-4-4-4-4-4-4-9-9-9-9-9-9-9-9-|
pm----------- # continue -->

1|--------------------------------------------------------------------|
2|--------------------------------------------------------------------|
3|--------------------------------------------------------------------|
4|-7-7-7-7-7-7-7-7--0-0-0-0-0-0-0-0--4-4-4-4-4-4-4-4--9-9-9-9-9-9-9-9-|
5|-5-5-5-5-5-5-5-5--0-0-0-0-0-0-0-0--4-4-4-4-4-4-4-4--9-9-9-9-9-9-9-9-|
6|-5-5-5-5-5-5-5-5--0-0-0-0-0-0-0-0--4-4-4-4-4-4-4-4--9-9-9-9-9-9-9-9-|
continue -->

1|-----------------------------------------|
2|-----------------------------------------|
3|-----------------------------------------|
4|-7-7-7-7-7-7-7-7--5-5-5-5-5-5-5-5--7-----|
5|-7-7-7-7-7-7-7-7--5-5-5-5-5-5-5-5--7-----| (back to intro riff)
6|-7-7-7-7-7-7-7-7--5-5-5-5-5-5-5-5--7-----|
#

************************************

| / slide up
| h hammer-on
| p pull-off
| # Hard downstroke - full stop

************************************

0 reply
smith1814 10 wrote on August 23 2013, 03:06 pm

Just my take on the intro:

|---------------------------|----------------------|
|---------------------------|----------------------|
|---------------------------|----------------------|
|----------7----------------|--------7-------------|
|----9---------7----5-------|----9-----9---7-----5-|
|008---009---6---555--x0-x0-|008---00----7---555---|
pm .. .. ... .. .. ..

0 reply
XelwinnasutionX 10 wrote on September 5 2013, 07:42 pm

thank guys

guest
You may want to rate the tab now too:
select rating
Wanna post a correction for this tab? Suggest correction