Oops, an error
Loading. Please wait.

Candyman Dean Corll Tab

1,923 views 3 this week
no commentswrite comment
1 2 3 4 5
please rate
add to favorites
launch autoscroll
font size
0
reset
how to read this tab
guitar tuner
Autoscroll
slow
fast
+/-
esc
set tempo
stop
Help us to improve Ultimate-Guitar.com Take our survey!
×
Author
Difficulty
Tuning
intermediate
C F A# D# G C
-------------------------------------------------------------------------------
                             Church of Misery - Candyman (Dean Corll)
-------------------------------------------------------------------------------
Tabbed by: Apolotary
last.fm: http://www.last.fm/user/Apolotary

Tuning: C F A# D# G c

Intro / 1st riff

repeat the first part 3 times, then play the second part

c |---------------------------------------------------------------------------|
G |---------------------------------------------------------------------------|
D#|---------------------------------------------------------------------------|
A#|--2-2--5-6-7---------------------2-2--5-6-7-9\-----------------------------|
F |--2-2--5-6-7-----5\0-------------2-2--5-6-7-9\-----------------------------|
C |--0-0--3-4-5-6-7-----------------0-0--3-4-5-7\-----------------------------|

2nd riff

c |---------------------------------------------------------------------------|
G |---------------------------------------------------------------------------|
D#|---------------------------------------------------------------------------|
A#|--2-2-----2-2-----5-7-----------------5b-----------------------------------|
F |--2-2-----2-2-----5-7--------5~----------7--5-6-7~-------------------------|
C |--0-0-3b--0-0-3b--3-5--5-6-7----5-6-7--------------------------------------|

3rd riff (chorus?)

c |---------------------------------------------------------------------------|
G |---------------------------------------------------------------------------|
D#|--5/7-7-7------------5/7-7-7-----------------------------------------------|
A#|--5/7-7-7--7-8-9-12--5/7-7-7-7-8-9-----------------------------------------|
F |--3/5-5-5--7-8-9-12--3/5-5-5-7-8-9--/10~-----------------------------------|
C |-----------5-6-7-10----------5-6-7-----------------------------------------|

4th riff

c |---------------------------------------------------------------------------|
G |---------------------------------------------------------------------------|
D#|---------------------------------------------------------------------------|
A#|--9-8-7---------5h7-5h7-5h7--9-8-7-----------------------------------------|
F |--9-8-7--/10~-7--------------9-8-7--/10~-7--5-6-7--------------------------|
C |--7-6-5----------------------7-6-5-----------------------------------------|

repeat 3rd and 4th riffs, and then 2nd riff (listen to the song to get the idea) 
then around 04:32 goes 

5th riff

c |---------------------------------------------------------------------------|
G |---------------------------------------------------------------------------|
D#|---------------------------------------------------------------------------|
A#|--7-7-7-7-5--5-2-------------5-7b-7-5-----7-7-7-7-5--5-2-------------5-7b--|
F |--7-7-7-7-5--5-2---------5-7----------7---7-7-7-7-5--5-2---------5-7-------|
C |--5-5-5-5-3--3-0-0-3-5-6------------------5-5-5-5-3--3-0-0-3-5-6-----------|

they usually don't play the beginning of this riff on live gigs, replacing it
with wah-wah effect.

Repeat this riff a bit and then in the end play this uber-awesome

Outro (6th riff)

(make a simple slide in the beginning)

c |---------------------------------------------------------------------------|
G |---------------------------------------------------------------------------|
D#|---------------------------------------------------------------------------|
A#|------------------5-7-7p5--------------------------------------------------|
F |------------5-6-7---------7-6----------------------------------------------|
C |--0-3-5-6-7----------------------------------------------------------------|

repeat the first part 3 times and then play the second part:

c |---------------------------------------------------------------------------|
G |---------------------------------------------------------------------------|
D#|---------------------------------------------------------------------------|
A#|--7-7p5--7-7p5-------------------------------------------------------------|
F |----------------6-5------5b------------------------------------------------|
C |---------------------0-7---0-5p3--0----------------------------------------|

you can also hear the bass playing this riff during last solo

************************************

| /   slide up
| \   slide down
| h   hammer-on 
| p   pull-off
| ~   vibrato
| +   harmonic
| x   Mute note
| b   Bend
| pb  Pre-bend
| br  Bend release
| pbr Pre-bend release
| brb Bend release bend

************************************
Suggest correction
What's this?
You can suggest a correction to this tab. Community and Mods will review your correction and vote to approve or reject it.
comments
We did not receive enough feedback on this tab! Please rate:
print report bad tab
1 2 3 4 5
guest
You may want to rate the tab now too:
select rating
Please do not post tabs as comments. Select "correction" instead!