Oops, an error
Loading. Please wait.

Lambs To The Slaughter tab

124 views 1 this week
no commentswrite comment
1 2 3 4 5
3 more votes to show rating
add to favorites
×
Save as Personal and add changes to this tab that will be seen only by you. Learn more ›
×
You can save this tab as Personal to edit and correct it or add notes. All changes will be seen only by you. Learn more »
launch autoscroll
font size
0
reset
how to read this tab
guitar tuner
edit
Autoscroll
slow
fast
+/-
esc
set tempo
stop
Song: Lambs To The Slaughter
Artist: Church Of Misery
Album: Thy Kingdom Scum


[Intro] 
C |---------------------------------------------------------------------------| x3
G |---------------------------------------------------------------------------|
D#|---------------------------------------------------------------------------|
A#|---------------------------------------------------------------------------|
F |---------7-------5---------------------------10--10------------------------|
C |----0---------/7------5-3----5br--------3----------------------------------|

C |---------------------------------------------------------------------------| x1
G |---------------------------------------------------------------------------|
D#|---------------------------------------------------------------------------|
A#|---------------------------------------------------------------------------|
F |---------7-------5---------------------------------------------------------|
C |----0---------/7------5-3----5br----3-----5-3------------------------------|


[Verse]
C |-----------------------|-----------------------|-----------------------|---------------|
G |-----------------------|-----------------------|-----------------------|---------------|
D#|-----------------------|-----------------------|-----------------------|---------------|
A#|----------5------------|----------5------------|----------5------------|---------------| 
F |------5h7---7p5---5h7--|------5h7---7p5---5h7--|------5h7---7p5---5h7--|-----5---------| }
C |--0-0-----------7------|--0-0-----------7------|--0-0-----------7------|--/7------5-3--| } 
                                                                                            }x2
C |-----------------------|-----------------------|-----------------------|---------------| }
G |-----------------------|-----------------------|-----------------------|---------------| }
D#|-----------------------|-----------------------|-----------------------|---------------|
A#|----------5------------|----------5------------|----------5------------|--7-5~~--7-5~~-|
F |------5h7---7p5---5h7--|------5h7---7p5---5h7--|------5h7---7p5---5h7--|---------------|
C |--0-0-----------7------|--0-0-----------7------|--0-0-----------7------|---------------|



C |---------------------------------------------------------------------------|
G |---------------------------------------------------------------------------|
D#|---------------------------------------------------------------------------|
A#|--7/9-----------(lick)---------------7/9---------7b8-----------------------|
F |--5/7--------------------------------5/7-----------------------------------|
C |---------------------------------------------------------------------------|


[Chorus]
C |---------------------------------------------------| x2
G |--------------------------9------------------------|
D#|--------------------------9--7---------------------|
A#|---------------------------------------------------|    }
F |--5-7----5-7----5----------------------------------|    }
C |------------------7-3--0---------------------------|    }
                                                           }x2
C |---------------------------------------------------| x1 }
G |---------------------------------------------------|    }
D#|---------------------------------------------------|    }
A#|--------------------5------------------------------|
F |--5-7----5-7----5------7--5-7----------------------|
C |------------------7-----------7-6~~----5b6----3----|



C |--------------------------------------|-------------------------------------|
G |--------------------------------------|-------------------------------------|
D#|--------------------------------------|-------------------------------------|
A#|--7--9------12--9----------------5~~--|--7--9------12--9--------------------|
F |--5--7------10--7------7-5---5--------|--5--7------10--7-----7-5------------|
C |---------------------------7----------|---------------------------7--6--5---|

C |--------------------------------------|-------------------------------------|
G |--------------------------------------|-------------------------------------|
D#|--------------------------------------|-------------------------------------|
A#|--7--9------12--9----------------5~~--|--7--9------12--9--------------------|
F |--5--7------10--7------7-5---5--------|--5--7------10--7--------------------|
C |---------------------------7----------|-----------------------5-3-0-6--3----|


[Verse]
C |-----------------------|-----------------------|-----------------------|---------------|
G |-----------------------|-----------------------|-----------------------|---------------|
D#|-----------------------|-----------------------|-----------------------|---------------|
A#|----------5------------|----------5------------|----------5------------|---------------| 
F |------5h7---7p5---5h7--|------5h7---7p5---5h7--|------5h7---7p5---5h7--|-----5---------| }
C |--0-0-----------7------|--0-0-----------7------|--0-0-----------7------|--/7------5-3--| } 
                                                                                            }x2
C |-----------------------|-----------------------|-----------------------|---------------| }
G |-----------------------|-----------------------|-----------------------|---------------| }
D#|-----------------------|-----------------------|-----------------------|---------------|
A#|----------5------------|----------5------------|----------5------------|--7-5~~--7-5~~-|
F |------5h7---7p5---5h7--|------5h7---7p5---5h7--|------5h7---7p5---5h7--|---------------|
C |--0-0-----------7------|--0-0-----------7------|--0-0-----------7------|---------------|


[Chorus]
C |---------------------------------------------------| x2
G |--------------------------9------------------------|
D#|--------------------------9--7---------------------|
A#|---------------------------------------------------|    
F |--5-7----5-7----5----------------------------------|    }
C |------------------7-3--0---------------------------|    }
                                                           }x2
C |---------------------------------------------------| x1 }
G |---------------------------------------------------|    }
D#|---------------------------------------------------|    
A#|--------------------5------------------------------|
F |--5-7----5-7----5------7--5-7----------------------|
C |------------------7-----------7-6~~----5b6----3----|



C |--------------------------------------|-------------------------------------|
G |--------------------------------------|-------------------------------------|
D#|--------------------------------------|-------------------------------------|
A#|--7--9------12--9----------------5~~--|--7--9------12--9--------------------|
F |--5--7------10--7------7-5---5--------|--5--7------10--7-----7-5------------|
C |---------------------------7----------|---------------------------7--6--5---|

C |--------------------------------------|-------------------------------------|
G |--------------------------------------|-------------------------------------|
D#|--------------------------------------|-------------------------------------|
A#|--7--9------12--9----------------5~~--|--7--9------12--9--------------------|
F |--5--7------10--7------7-5---5--------|--5--7------10--7--------------------|
C |---------------------------7----------|-----------------------6-5-3-0-------|



C |---------------------------------------------------------------------------| x4
G |---------------------------------------------------------------------------|
D#|---------------------------------------------------------------------------|
A#|---------------------------------------------------------------------------|
F |---------7-------5---------------------------10--10------------------------|
C |----0---------/7------5-3----5br--------3----------------------------------|


[SOLO]


C |---------------------------------------------------| x4
G |---------------------------------------------------|
D#|---------------------------------------------------|
A#|--------------------5------------------------------|
F |--5-7----5-7----5------7--5-7----------------------|
C |------------------7-----------7-6~~----5b6----3----|



C |-----------------------------------|------------------------------------||----| x2
G |-----------------------------------|------------------------------------||----|
D#|-----------------------------------|------------------------------------||----|
A#|-----------------------------------|------------------------------------||----|
F |--2--2-----------------------7--5--|--2--2------------------------5--5--||--2-|
C |--0--0-----------------------5--3--|--0--0------------------------3--3--||--0-|



    PM.....................................................
C |-----------------------------|-------------------------------| x4 
G |-----------------------------|-------------------------------| 
D#|-----------------------------|-------------------------------|
A#|------5----------------------|-----5--------------7b8-7-5----|
F |--5-7------7----5-7-5--------|--7-------7--5-7------------7--|
C |-----------------------3--0--|-------------------------------|


C |-----------------------------|-------------------------------| x8
G |-----------------------------|-------------------------------|
D#|-----------------------------|-------------------------------|
A#|------5----------------------|-----5--------------7b8-7-5----|
F |--5-7------7----5-7-5--------|--7-------7--5-7------------7--|
C |-----------------------3--0--|-------------------------------|


[Outro]


C |-----------------------------------|------------------------------------||----| x2
G |-----------------------------------|------------------------------------||----|
D#|-----------------------------------|------------------------------------||----|
A#|-----------------------------------|------------------------------------||----|
F |--2--2-----------------------7--5--|--2--2------------------------5--5--||--2-|
C |--0--0-----------------------5--3--|--0--0------------------------3--3--||--0-|





************************************


| h Hammer-on
| p Pull-off
| r Release
| b Bend
| br Bend release
| / Slide up
| \ Slide down
| ~ Vibrato
| PM Palm mute


************************************

            
            
Suggest correction
Creating personal tab
Creating personal tab
You can edit any tab online and save it as your Personal.

You can edit, replace or remove any tab part or add personal notes – all changes will be seen only by you.

Personal tabs can be accessed anytime from any device, even offline.
Learn more »
Give kudos to tab author, rate the tab!
1 2 3 4 5
comments
print report bad tab
guest
You may want to rate the tab now too:
select rating
Wanna post a correction for this tab? Suggest correction