Oops, an error
Loading. Please wait.

Lies Bass Tab

43 views 1 this week
no commentswrite comment
1 2 3 4 5
3 more votes to show rating
add to favorites
launch autoscroll
font size
0
reset
guitar tuner
Autoscroll
slow
fast
+/-
esc
set tempo
stop
Help us to improve Ultimate-Guitar.com Take our survey!
×
Author
Difficulty
novice
-------------------------------------------------------------------------------
                          LIES - CHVRCHES
-------------------------------------------------------------------------------

Tabbed by - jammyjamesm
E-mail - jammyjamesm@outlook.com

Tuning - Standard


[Intro/Verse 1]
(0:00-0:54)                                               
                                                                        
  1 a + e 2 a + e 3 a + e 4 a + e                                       |
G|--------------------------------|                                     |
D|---------------------------8----|                                     |
A|------------8-------------------|                                     |
E|6-----6-6-------6-----6-6-------| x4                                  |
                                                                        |
  1 a + e 2 a + e  3 a + e 4 a + e  1 a + e 2 a + e 3 a + e 4 a + e     |
G|---------------------------------|--------------------------------|   |
D|----------------------------8----|---------------------------8----|   |
A|------------10\------------------|------------6-------------------|   |
E|8-----8-8--------4-----4-4-------|4-----4-4-------4-----4-4-------|   |
                                                                        |
  1 a + e 2 a + e 3 a + e 4 a + e  1 a + e 2 a + e 3  a + e  4 a + e    |
G|--------------------------------|----------------------------------|  |
D|---------------------------8----|----------------------------------|  |
A|------------6-------------------|------------6---10-----10-----8---|  |
E|4-----4-4-------4-----4-4-------|4-----4-4-------------------------|  | x3


[Chorus]
(0:54-1:31)

  1 a + e 2 a + e 3 a + e 4 a + e  1 a + e 2 a + e 3 a + e 4 a + e        |
G|--------------------------------|--------------------------------|      |
D|--------------------------------|--------------------------------|      |
A|------------5---------------5---|------------5-----------5-------|      |
E|3-----3-3-------3-----3-3-------|3-----3-3-------6-----6-----6---|      |
                                                                          |
  1 a + e 2 a + e 3 a + e 4 a + e  1 a + e 2 a + e 3 a + e 4 a + e        |
G|--------------------------------|--------------------------------|      |
D|------8---------------8---------|------8---------------8---------|      |
A|6---x-------6---6---x-------6---|6---x-------6---6---x-------6---|      |
E|--------------------------------|--------------------------------|      |
                                                                          |
  1 a + e 2 a +  e 3 a + e 4 a +  e  1 a + e 2 a +  e 3 a + e 4 a + e     |
G|----------------------------------|-------------------------7-------|   |
D|------------10---------------10---|------------10-------------------|   |
A|8-----8-8--------8-----8-8--------|8-----8-8------------------------|   |
E|----------------------------------|-----------------6-----6-----6---|   |
                                                                          |
  1 a + e 2 a + e 3 a + e 4 a + e  1 a + e 2 a + e 3 a + e 4 a + e        |
G|--------------------------------|--------------------------------|      |
D|------8---------------8---------|------8---------------8---------|      |
A|6---x-------6---6---x-------6---|6---x-------6---6---x-------6---|      |
E|--------------------------------|--------------------------------|      | x2


[Verse 2] 
(1:31-1:49)                                    
                                                                        
  1 a + e 2 a + e 3 a + e 4 a + e                                       
G|--------------------------------|                                     
D|---------------------------8----|                                     
A|------------8-------------------|                                     
E|6-----6-6-------6-----6-6-------| x4                                  
                                                                                  
  1 a + e 2 a + e  3 a + e 4 a + e  1 a + e 2 a + e 3 a + e 4 a + e     
G|---------------------------------|--------------------------------|   
D|----------------------------8----|---------------------------8----|   
A|------------10\------------------|------------6-------------------|   
E|8-----8-8--------4-----4-4-------|4-----4-4-------4-----4-4-------|
                                                                        
  1 a + e 2 a + e 3 a + e 4 a + e  1 a + e 2 a + e 3  a + e  4 a + e      
G|--------------------------------|----------------------------------|  
D|---------------------------8----|----------------------------------|  
A|------------6-------------------|------------6---10-----10-----8---|  
E|4-----4-4-------4-----4-4-------|4-----4-4-------------------------|  


[Chorus]
(1:49-2:26)
 
 1 a + e 2 a + e 3 a + e 4 a + e  1 a + e 2 a + e 3 a + e 4 a + e        |
G|--------------------------------|--------------------------------|      |
D|--------------------------------|--------------------------------|      |
A|------------5---------------5---|------------5-----------5-------|      |
E|3-----3-3-------3-----3-3-------|3-----3-3-------6-----6-----6---|      |
                                                                          |
  1 a + e 2 a + e 3 a + e 4 a + e  1 a + e 2 a + e 3 a + e 4 a + e        |
G|--------------------------------|--------------------------------|      |
D|------8---------------8---------|------8---------------8---------|      |
A|6---x-------6---6---x-------6---|6---x-------6---6---x-------6---|      |
E|--------------------------------|--------------------------------|      |
                                                                          |
  1 a + e 2 a +  e 3 a + e 4 a +  e  1 a + e 2 a +  e 3 a + e 4 a + e     |
G|----------------------------------|-------------------------7-------|   |
D|------------10---------------10---|------------10-------------------|   |
A|8-----8-8--------8-----8-8--------|8-----8-8------------------------|   |
E|----------------------------------|-----------------6-----6-----6---|   |
                                                                          |
  1 a + e 2 a + e 3 a + e 4 a + e  1 a + e 2 a + e 3 a + e 4 a + e        |
G|--------------------------------|--------------------------------|      |
D|------8---------------8---------|------8---------------8---------|      |
A|6---x-------6---6---x-------6---|6---x-------6---6---x-------6---|      |
E|--------------------------------|--------------------------------|      | x2


[Chorus]
(2:44-3:21)

  1 a + e 2 a + e 3 a + e 4 a + e  1 a + e 2 a + e 3 a + e 4 a + e        |
G|--------------------------------|--------------------------------|      |
D|--------------------------------|--------------------------------|      |
A|------------5---------------5---|------------5-----------5-------|      |
E|3-----3-3-------3-----3-3-------|3-----3-3-------6-----6-----6---|      |
                                                                          |
  1 a + e 2 a + e 3 a + e 4 a + e  1 a + e 2 a + e 3 a + e 4 a + e        |
G|--------------------------------|--------------------------------|      |
D|------8---------------8---------|------8---------------8---------|      |
A|6---x-------6---6---x-------6---|6---x-------6---6---x-------6---|      |
E|--------------------------------|--------------------------------|      |
                                                                          |
  1 a + e 2 a +  e 3 a + e 4 a +  e  1 a + e 2 a +  e 3 a + e 4 a + e     |
G|----------------------------------|-------------------------7-------|   |
D|------------10---------------10---|------------10-------------------|   |
A|8-----8-8--------8-----8-8--------|8-----8-8------------------------|   |
E|----------------------------------|-----------------6-----6-----6---|   |
                                                                          |
  1 a + e 2 a + e 3 a + e 4 a + e  1 a + e 2 a + e 3 a + e 4 a + e        |
G|--------------------------------|--------------------------------|      |
D|------8---------------8---------|------8---------------8---------|      |
A|6---x-------6---6---x-------6---|6---x-------6---6---x-------6---|      |
E|--------------------------------|--------------------------------|      | x2

[Outro]
(3:21)

  1  + 2  + 3  + 4  +  1  + 2  + 3  + 4 + 
G|--------------------|-------------------|
D|--------------------|-------------------|
A|--------------------|-------------------|
E|15---15---15---15---|15---15---15\\\3///| x3

  1  + 2  + 3  + 4  +  1  + 2  + 3  + 4 + 
G|--------------------|-------------------|
D|--------------------|-------------------|
A|--------------------|-------------------|
E|15---15---15---15---|15---15---15\\\----| 


| x  mute note
| /  slide up
| \  slide down 
Suggest correction
Give kudos to tab author, rate the tab!
1 2 3 4 5
comments
print report bad tab
guest
You may want to rate the tab now too:
select rating
Wanna post a correction for this tab? Suggest correction