Oops, an error
Loading. Please wait.

Lies chords

version 5
version 5

Whole song

25 views 3 this week
no commentswrite comment
1 2 3 4 5
3 more votes to show rating
add to favorites
×
Save as Personal and add changes to this tab that will be seen only by you. Learn more ›
×
You can save this tab as Personal to edit and correct it or add notes. All changes will be seen only by you. Learn more »
launch autoscroll
font size
0
reset
transpose
0
reset
simplify chords
display chords
guitar tuner
edit
Autoscroll
slow
fast
+/-
esc
set tempo
stop
About this tab version
Specific, corrected, timed chords, reorganization, performance notes throughout, synth converted to tab, adapted strum patterns. Was this info helpful? Yes No
Strumming Are these strumming patterns correct? Yes No
Verses (adapted) 105 bpm
1
 
&
 
2
 
&
 
3
 
&
 
4
 
&
 
Listen
Outro first line 105 bpm
1
 
&
 
2
 
&
 
3
 
&
 
4
 
&
 
5
 
&
 
6
 
&
 
7
 
&
 
8
 
&
 
Listen
Outro other lines 105 bpm
1
 
&
 
2
 
&
 
3
 
&
 
4
 
&
 
5
 
&
 
6
 
&
 
7
 
&
 
8
 
&
 
Listen
Chorus (adapted) 105 bpm
1
 
&
 
2
 
&
 
Listen
NOTE:
Verse variation and transition to chorus tab on the bottom; intro tab on top.
Chords with tab describe chords played by guitar; chords with lyrics describe whole context


CAPO 3


ORDER: I V1 V2 C V3 C B FC O


[INTRO]
(octaves adjusted)

e|-------------------------3-------|---------------------3-3---3---3-|
B|-------------3-------------------|-------------3-------------------|
G|-------------------------0-------|---------------------0-0---0---0-|
D|-0-----0---------0-----0---------|-0-----0---------0-----0---------|
A|---------------------------------|---------------------------------|
E|-3-----3---------3-----3---------|-3-----3---------3-----3---------|
   1 e + a 2 e + a 3 e + a 4 e + a   1 e + a 2 e + a 3 e + a 4 e + a
   G

e|-------------------------3-------|---------------------3-3---3---3-|
B|-------------3-------------------|-------------3-------------------|
G|-------------------------0-------|---------------------0-0---0---0-|
D|-0-----0---------0-----0---------|-0-----0---------0-----0---------|
A|---------------------------------|---------------------------------|
E|-3-----3---------3-----3---------|-3-----3---------3-----3---------|
   1 e + a 2 e + a 3 e + a 4 e + a   1 e + a 2 e + a 3 e + a 4 e + a
   G

e|---------------------------------|---------------------------------|
B|-----0-0---0---0-0-----0---------|-------------1-------------------|
G|---------------------------0-----|---------------------------0-----|
D|-2-----2-----2-------------------|---------------------------------|
A|-0-----0---0-----3-----3---------|-3-----3---------3-----3---------|
E|-----------------1-----1---------|-1-----1---------1-----1---------|
   1 e + a 2 e + a 3 e + a 4 e + a   1 e + a 2 e + a 3 e + a 4 e + a
   Am              Fmaj9+11          Fadd9

e|---------------------------------|---------------------------------|
B|-------------1-------------------|-------------1-------------------|
G|---------------------------0-----|-----------------0h2---0h2-------|
D|---------------------------------|-----------------2-----2-----5---|
A|-3-----3---------3-----3---------|-3-----3---------0-----0-----5---|
E|-1-----1---------1-----1---------|-1-----1---------------------3---|
   1 e + a 2 e + a 3 e + a 4 e + a   1 e + a 2 e + a 3 e + a 4 e + a
   Fadd9                                             Am          G


****************
| h  hammer-on
****************



[VERSE 1]
(variation tab)
G
Faster, faster; you won't go far
G
Shouldn't leave feeling faint, we both know why
           Am      Fmaj9
You got to show me both knees cold; I lie
Fmaj9                        Am    G
Hold me slowly, hide me 'til I can fly


[VERSE 2]
(intro tab)
G
Always we can sing, we can make time
G
Old songs, flood and flame; you could be mine
               Am      Fmaj9
But you got to show me both knees, skin and bone
Fmaj9
Clothe me, throw me, move me 'til


[CHORUS]
Em            D     Em G6                            C
I can sell you lies,   you can't get enough
                  D                  G               C
Make a true belie - ver of... anyone, anyone, anyone...
                 Em G6                               C
I can call you up   if I feel alone
                    D                     G                         C
I can feed your dir - ty mind like I know, like I know what you want


[VERSE 3]
(intro tab)
G
Icon of symmetry swallowing sides
G
Fall down in front of me, follow my eyes
                Am      Fmaj9
But I've got to see you moving, waste no time
Fmaj9
Teach me, make me holy 'til


[CHORUS]
(chorus transition tab)
Em            D     Em G6                            C
I can sell you lies,   you can't get enough
                  D                  G               C
Make a true belie - ver of... anyone, anyone, anyone...
                 Em G6                               C
I can call you up   if I feel alone
                    D                     G                         C
I can feed your dir - ty mind like I know, like I know what you want


[BRIDGE]
(no bass synth)
                      D
Anyone  anyone anyone...
      Em              C
Anyone  anyone anyone...
            C       Csus2              D
Like I know, like I know  what you want
            D           Em             D
Like I know, like I know  what you want


[FINAL CHORUS]
(full band at first chord)
n.c.                Em G6                            C
I can sell you lies,   you can't get enough
                  D                  G               C
Make a true belie - ver of... anyone, anyone, anyone...
                 Em G6                               C
I can call you up   if I feel alone
                    D                     G                         C
I can feed your dir - ty mind like I know, like I know what you want


[OUTRO]
(slide to n.c.)
244222 244225
1  2 3 4       1  2 3 4
F#m    F#m * | F#m    n.c. |
1  2 3 4       1  2 3 4
F#m    F#m * | F#m    n.c. |
1  2 3 4       1  2 3 4
F#m    F#m * | F#m    n.c. |
1  2 3 4       1  2 3 4
F#m    F#m * | F#m    n.c. |


[VERSE VARIATION TAB 1]

e|---------------------------------|---------------------------------|
B|-------------3-------------------|-------------3-------------------|
G|---------------------------0-----|---------------------------0-----|
D|-0-----0---------0-----0---------|-0-----0---------0-----0---------|
A|---------------------------------|---------------------------------|
E|-3-----3---------3-----3---------|-3-----3---------3-----3---------|
   1 e + a 2 e + a 3 e + a 4 e + a   1 e + a 2 e + a 3 e + a 4 e + a
   G

e|---------------------------------|---------------------------------|
B|-------------3-------------------|-------------3-------------------|
G|---------------------------0-----|---------------------------0-----|
D|-0-----0---------0-----0---------|-0-----0---------0-----0-----0---|
A|---------------------------------|---------------------------------|
E|-3-----3---------3-----3---------|-3-----3---------3-----3---------|
   1 e + a 2 e + a 3 e + a 4 e + a   1 e + a 2 e + a 3 e + a 4 e + a

e|-------------0-------------------|---------------------------------|
B|---------------------------------|-------------1-------------------|
G|---------------------------0-----|---------------------------0-----|
D|-2-----2-------------------------|---------------------------------|
A|-0-----0---------3-----3---------|-3-----3---------3-----3---------|
E|-----------------1-----1---------|-1-----1---------1-----1---------|
   1 e + a 2 e + a 3 e + a 4 e + a   1 e + a 2 e + a 3 e + a 4 e + a
   Am              Fadd9

e|---------------------------------|---------------------------------|
B|-------------1-------------------|-------------1-------------------|
G|---------------------------0-----|-----------------0h2---0h2-------|
D|---------------------------------|-----------------2-----2-----5---|
A|-3-----3---------3-----3---------|-3-----3---------0-----0-----5---|
E|-1-----1---------1-----1---------|-1-----1---------------------3---|
   1 e + a 2 e + a 3 e + a 4 e + a   1 e + a 2 e + a 3 e + a 4 e + a
   Fadd9                                             Am          G


[TRANSITION TO CHORUS]
e|-----------------|
B|-----------------|
G|-----------------|
D|-2-----2---0-----|
A|-2-----2---0-----|
E|-----------------|
   3 e + a 4 e + a
   Em        D
   I can sellyou lies

            
            
Suggest correction
Creating personal tab
Creating personal tab
You can edit any tab online and save it as your Personal.

You can edit, replace or remove any tab part or add personal notes – all changes will be seen only by you.

Personal tabs can be accessed anytime from any device, even offline.
Learn more »
Give kudos to tab author, rate the tab!
1 2 3 4 5
comments
print report bad tab
guest
You may want to rate the tab now too:
select rating
Wanna post a correction for this tab? Suggest correction