Oops, an error
Loading. Please wait.

The Mother We Share Bass Tab

version 2
version 2

Whole song

  • In this version the verse is different as well as ... Show more
19 views 1 this week
no commentswrite comment
1 2 3 4 5
1 last vote to show rating
add to favorites
launch autoscroll
font size
0
reset
guitar tuner
Autoscroll
slow
fast
+/-
esc
set tempo
stop
Help us to improve Ultimate-Guitar.com Take our survey!
×
Author
About this tab version
In this version the verse is different as well as having an alternate way to play the chorus. Was this info helpful? Yes No
The Mother We Share
CHVRCHES



[Intro]

G|---------------------------------------------------------------------------|
D|---------------------------------------------------------------------------|
A|---------------------------------NO BASS-----------------------------------|
E|---------------------------------------------------------------------------|

[Chorus]

G|---------------------------------------------------------------------------|
D|---------------------------------------------------------------------------|
A|-4---4-4---4---------------------------------------------------------------|
E|------------1---1-1---2---2-2---1h2----------------------------------------|


[Verse]

G|---------------------------------------------------------------------------|
D|---------------------------------------------------------------------------|
A|---------------------------------------------------------------------------|
E|-6---6-6---4---4-4--6--2---2-2---2h4---4-4--6------------------------------|

G|---------------------------------------------------------------------------|
D|---------------------------------------------------------------------------|
A|---------------------------------------------------------------------------|
E|-6---6-6---4-4-4-4---4--4---2---2-2---2h4----------------------------------|


[Chorus]

G|---------------------------------------------------------------------------|
D|---------------------------------------------------------------------------|
A|-4---4-4---4---------------------------------------------------------------|  (x2)
E|------------1---1-1---2---2-2---1h2---2-2----------------------------------|


[Verse]

G|---------------------------------------------------------------------------|
D|---------------------------------------------------------------------------|
A|---------------------------------------------------------------------------|
E|-6---6-6---4---4-4--6--2---2-2---2h4---4-4--6------------------------------|

G|---------------------------------------------------------------------------|
D|---------------------------------------------------------------------------|
A|---------------------------------------------------------------------------|
E|-6---6-6---4-4-4-4---4--4---2---2-2---2h4----------------------------------|


[Chorus]

G|---------------------------------------------------------------------------|
D|---------------------------------------------------------------------------|
A|-4---4-4---4---------------------------------------------------------------|  (x2)
E|------------1---1-1---2---2-2---1h2---2-2----------------------------------|


[Bridge]

G|---------------------------------------------------------------------------|
D|---------------------------------------------------------------------------|
A|---------------------------------------------------------------------------|
E|-6~--------4~--------2~----------------------------------------------------|  (x3)


[Chorus]

G|---------------------------------------------------------------------------|
D|---------------------------------------------------------------------------|
A|-4---4-4---4---------------------------------------------------------------|  (x3)
E|------------1---1-1---2---2-2---1h2---2-2----------------------------------|

G|---------------------------------------------------------------------------|
D|---------------------------------------------------------------------------|
A|-4---4-4---4---------------------------------------------------------------| 
E|------------1---1-1---2---2-2----------------------------------------------|



Note: You can also play the chorus like this:


G|---------------------------------------------------------------------------|
D|---------------------------------------------------------------------------|
A|---------------------------------------------------------------------------|
E|-9---9-9---9\1---1-1---2---2-2---1h2---2-2---------------------------------|

It can sound good with the slide depending on your set up, but I personally go with
how I wrote it earlier.


If anyone has any corrections on the tab I would love for you to put them in the comments, specifically on
the verses which I am not entirely sure about.
************************************

| x   Dead note
| g   Grace note
| (n) Ghost note
| h   Hammer-on
| p   Pull-off
| r   Release
| >   Accented note
| t   Tapping
| b   Bend
| br  Bend release
| pb  Pre-bend
| pbr Pre-bend release
| /   Slide up
| \   Slide down
| ~   Vibrato
| s   Slap
| P   Pop
| PM  Palm mute
| TR  Trill
| N   Tremolo

************************************
Suggest correction
Give kudos to tab author, rate the tab!
1 2 3 4 5
comments
print report bad tab
guest
You may want to rate the tab now too:
select rating
Wanna post a correction for this tab? Suggest correction