Oops, an error
Loading. Please wait.

And I intro tab

version 1
version 1

Intro

Whole song

Interactive

by Ciara
3,921 views 1 this week
1 commentread comment
1 2 3 4 5
2 more votes to show rating
add to favorites
×
Save as Personal and add changes to this tab that will be seen only by you. Learn more ›
×
You can save this tab as Personal to edit and correct it or add notes. All changes will be seen only by you. Learn more »
launch autoscroll
font size
0
reset
how to read this tab
guitar tuner
edit
Autoscroll
slow
fast
+/-
esc
set tempo
stop
[Capo 1]

e|--------1-0---------------0s---------------------------0---------|
B|------1-----1-----------1--------------3---------1---1---1-------|
G|----2---------2-------0--------------3---3-----0---0-------0-----|
D|--0-------------0---2--------------3---------2---------------2---|
A|------------------0--------------6---------0---------------------|
E|-------------------------------3---------------------------------|


s-> staccato

            
            
Suggest correction
Creating personal tab
Creating personal tab
You can edit any tab online and save it as your Personal.

You can edit, replace or remove any tab part or add personal notes – all changes will be seen only by you.

Personal tabs can be accessed anytime from any device, even offline.
Learn more »
Give kudos to tab author, rate the tab!
1 2 3 4 5
comments
print report bad tab
1 comment total.
0 reply
Natasha_sk8in 10 Oct 29, 2006 08:01 PM

Hey, I read your tab, it was pretty close but I made some minor adjustments here and there so it sounds more like the song when you listen to it. Good work on the tab, keep it up.

e|--------1-0h1p0-------------0-------------------------1-0h1p0---|
B|------1---------1---------1----------------3--------------------|
G|----2-------------------0----------------3---3-----0------------|
D|--0-------------------2----------------3---------2--------------|
A|--------------------0----------------5---------0----------------|
E|-----------------------------------3----------------------------|

That repeats throughout the whole song.

Much Love,
Sk8R.

guest
Wanna post a correction for this tab? Suggest correction