Oops, an error
Loading. Please wait.

Birthday Cake bass

163 views 1 this week
no commentswrite comment
1 2 3 4 5
3 more votes to show rating
add to favorites
×
Save as Personal and add changes to this tab that will be seen only by you. Learn more ›
×
You can save this tab as Personal to edit and correct it or add notes. All changes will be seen only by you. Learn more »
launch autoscroll
font size
0
reset
guitar tuner
edit
Autoscroll
slow
fast
+/-
esc
set tempo
stop
Author
Difficulty
-------------------------------------------------------------------------------
                          BIRTHDAY CAKE - CIBO MATTO
-------------------------------------------------------------------------------
Tabbed by:lucbuzz 
E-mail: lucbuzz@gmail.com
Tuning: E A D G

This song is played with an octave pedal and some fuzz. The bass is played one octave down with the pedal.



[Intro]

G|--------------------------------------------|
D|--------------------------------------------|
A|-7-6-5--------7-6-5--------7-6-5------------|
E|-------6--5-4-------6--5-4-------6--5-4-0---|


[Verse]

G|-----|
D|-----|
A|-----|
E|--0--| (I'm not kidding. It's actually that easy.)


[Chorus]

G|--------------|
D|--------------|
A|-7-6-5--------|
E|-------6--5-4-| x8

[Breakdown 1]

("Beat it!, Beat it up!")

G|------------|
D|-5-7--5-7---|
A|------------|
E|------------|x4

[Bridge]

("Extra Sugar!, Extra Salt!, Extra Oil and MSG!")

G|------------------------------------|
D|-------5--5---5-7--7-5-7-9--9-8-7-5-|
A|-7-5-7------7-----------------------|
E|------------------------------------| x2



[Chorus]

G|--------------|
D|--------------|
A|-7-6-5--------|
E|-------6--5-4-| x8

[Breakdown 2]

*It's a bit hard to hear the bass in this part but when played on Viva Variety 
it is clear this is what Sean Lennon Plays

("You were born in the 60s")

G|-------|
D|-------|
A|---7-6-|
E|-0-----| x26

[Bridge]

("Extra Sugar!, Extra Salt!, Extra Oil and MSG!")

G|------------------------------------|
D|-------5--5---5-7--7-5-7-9--9-8-7-5-|
A|-7-5-7------7-----------------------|
E|------------------------------------| x2

[Chorus/Outro]

G|--------------|
D|--------------|
A|-7-6-5--------|
E|-------6--5-4-| x8



************************************

| x   Dead note
| g   Grace note
| (n) Ghost note
| h   Hammer-on
| p   Pull-off
| r   Release
| >   Accented note
| t   Tapping
| b   Bend
| br  Bend release
| pb  Pre-bend
| pbr Pre-bend release
| /   Slide up
| \   Slide down
| ~   Vibrato
| s   Slap
| P   Pop
| PM  Palm mute
| TR  Trill
| N   Tremolo

************************************
Suggest correction
Creating personal tab
Creating personal tab
You can edit any tab online and save it as your Personal.

You can edit, replace or remove any tab part or add personal notes – all changes will be seen only by you.

Personal tabs can be accessed anytime from any device, even offline.
Learn more »
Give kudos to tab author, rate the tab!
1 2 3 4 5
comments
print report bad tab
guest
You may want to rate the tab now too:
select rating
Wanna post a correction for this tab? Suggest correction