Oops, an error
Loading. Please wait.

Ensaio Sobre Ela chords

by Cicero
82 views 6 this week
no commentswrite comment
1 2 3 4 5
3 more votes to show rating
add to favorites
×
Save as Personal and add changes to this tab that will be seen only by you. Learn more ›
×
You can save this tab as Personal to edit and correct it or add notes. All changes will be seen only by you. Learn more »
launch autoscroll
font size
0
reset
transpose
0
reset
simplify chords
display chords
guitar tuner
edit
Autoscroll
slow
fast
+/-
esc
set tempo
stop
Author
Difficulty
Strumming
There is no strumming pattern for this song yet. and get +5 IQ
Artist: Cícero
Song: Ensaio Sobre Ela
Album: Canções de Apartamento
Tabbed by: gustavoaraujo999@hotmail.com

**Acordes no fim


[Intro]
  A7M               F#m7              C#m7              A/D
 | 1 & 2 & 3 & 4 & | 1 & 2 & 3 & 4 & | 1 & 2 & 3 & 4 & | 1 & 2 & 3 & 4 & |
e|-----------------|-----------------|-4---4-----4---4-|-4/--9-----9---7-|
B|-7---7-----5---0-|-2---2-----0---0-|-5---5-----5---5-|-5/--10----10--10|
G|-6---6-----6---0-|-2---2-----2---0-|-4---4-----4---4-|-4/--9-----9---9-|
D|-6---6-----6---0-|-2---2-----2---0-|-----------------|---------0---0---|
A|-0---0---0---0---|-----------------|-4---4---4---4---|-4---------------|
E|-----------------|-2---2---2---2---|-----------------|-----------------|

  A7M               D7M               F#m               F#m6  
 | 1 & 2 & 3 & 4 & | 1 & 2 & 3 & 4 & | 1 & 2 & 3 & 4 & | 1 & 2 & 3 & 4 & |
e|-----4-----4-----|-----------------|-----5-----5---5-|-----5-----5-----|
B|-----5-----5---5-|-----3-----3---+-|-----2-----2---4-|-----4-----4---0-|
G|-----6-----6---6-|-----6-----6---7-|-----2-----2---2-|-----2-----2---0-|
D|-----------------|-----4-----4-----|-4-------4---4---|-4-------4---4-0-|
A|-0-------0---0---|-5-------5---5---|-----------------|-----------------|
E|-----------------|-----------------|-----------------|-----------------|

  C#7               C#m7/E            A/D#              D7M 
 | 1 & 2 & 3 & 4 & | 1 & 2 & 3 & 4 & | 1 & 2 & 3 & 4 & | 1 & 2 & 3 & 4 & |
e|-4---4-----4-----|-4---4-----4-----|-----------------|-----------------|
B|-2---2-----2-----|-2---2-----2-----|-5---5-----5-----|-7---7-----7---5-|
G|-4---4-----4-----|-4---4-----4-----|-6---6-----6---0-|-6---6-----6---6-|
D|-3---3---3-------|-2---2---2-------|-7---7-----7---0-|-7---7-----7---7-|
A|-----------------|-----------------|-6---6---6-------|-5---5---5---5---|
E|-----------------|-----------------|-----------------|-----------------|


[Verse]
           A7M
Eu nem vi
          F#m7           C#m7
Quando você espetou sua casa aqui
         C#m/D             A6
Quando você espalhou seu suor em mim
 D7M   F#m   F#m6
Ameno
  C#7     C#m7/E   A/D#   D7M
E mesmo assim

       A7M
Eu nem vi
         F#m7             C#m7
Quando você acordou as cortinas
     C#m/D
Descobriu meu quintal
       < A6
Não se esqueça
      D7M
Por enquanto
        C#m7       C#m/D >    A6   D7M   F#m   F#m6
De esquecer alguma coisa pela casa
  C#7           C#m7/E   A/D#   D7M
E vir buscar do nada


[Interlude]
A6   Bm6   F#m   Bm7/D
A6   Bm6   F#m   Bm7/D


[Chorus 1]
         A6    Bm6    F#m  Bm7/D
Nem vi você chegar
         A6    Bm6    F#m   Bm7/D
Foi como ser feliz de novo
    A6   Bm6   F#m  Bm7/D
Nem vi você chegar
         A6       Bm6
Foi como ser feliz


[Intro]
A7M   F#m7  C#m7   A/D    A7M   D7M   F#m   F#m6  C#7  C#m7/E A/D#  D7M


[Verse 2]
 A7M     F#m7
Ainda faz
   C#m7     C#m/D
Um tempo bom
     A6         D7M     F#m   F#m6
Pra desperdiçar    comigo
  C#7          C#m7      A/D#   D7M
Podemos enfeitar   domingos


[Chorus]
      A6    Bm6    F#m  Bm7/D
Nem vi você chegar
         A6      Bm6  F#m  Bm7/D
Foi como ser feliz de novo
    A6   Bm6   F#m  Bm7/D
Nem vi você chegar
           A6    Bm6   F#m7  A6
Foi bom te ver sair de novo




[Intro]
   A7M   F#m7  C#m7   A/D    A7M   D7M   F#m   F#m6  C#7  C#m7/E A/D#  D7M
e|-----|-----|--4--|-9--7--|--4--|-----|--5--|--5--|--4--|--4--|-----|-----|
B|-7-5-|--2--|--5--|-10-10-|--5--|--3--|--2--|--4--|--2--|--2--|--5--|--7--|
G|-6-6-|--2--|--4--|-9--9--|--6--|--6--|--2--|--2--|--4--|--4--|--6--|--6--|
D|-6-6-|--2--|-----|-0--0--|-----|--4--|--4--|--4--|--3--|--2--|--7--|--7--|
A|-0-0-|-----|--4--|-------|--0--|--5--|-----|-----|-----|-----|--6--|--5--|
E|-----|--2--|-----|-------|-----|-----|-----|-----|-----|-----|-----|-----|


[Verse 1]
   A7M   F#m7  C#m7 C#m/D  A6    D7M   F#m   F#m6  C#7  C#m7/E A/D#  D7M
e|-----|-----|--4--|--4--|-----|-----|--5--|--5--|--4--|--4--|-----|-----|
B|--5--|--2--|--5--|--5--|--5--|--3--|--2--|--4--|--2--|--2--|--5--|--7--|
G|--6--|--2--|--4--|--6--|--6--|--6--|--2--|--2--|--4--|--4--|--6--|--6--|
D|--6--|--2--|-----|-----|--4--|--4--|--4--|--4--|--3--|--2--|--7--|--7--|
A|--0--|-----|--4--|--0--|-----|--5--|-----|-----|-----|-----|--6--|--5--|
E|-----|--2--|-----|-----|--5--|-----|-----|-----|-----|-----|-----|-----|

   A7M   F#m7  C#m7 C#m/D  A6*   D7M*  C#m7 C#m/D   A6   D7M   F#m   F#m6  C#7  C#m7/E A/D#  D7M
e|-----|-----|--4--|--4--|-----|-----|--4--|--4--|-----|-----|--5--|--5--|--4--|--4--|-----|----|
B|--5--|--2--|--5--|--5--|--7--|--2--|--5--|--5--|--5--|--3--|--2--|--4--|--2--|--2--|--5--|--7-|
G|--6--|--2--|--4--|--6--|--6--|--2--|--4--|--6--|--6--|--6--|--2--|--2--|--4--|--4--|--6--|--6-|
D|--6--|--2--|-----|-----|--7--|--4--|-----|-----|--4--|--4--|--4--|--4--|--3--|--2--|--7--|--7-|
A|--0--|-----|--4--|--0--|-----|--5--|--4--|--0--|-----|--5--|-----|-----|-----|-----|--6--|--5-|
E|-----|--2--|-----|-----|--5--|-----|-----|-----|--5--|-----|-----|-----|-----|-----|-----|----|
                         |[extra na  2a passagem]|    

[Interlude]
    A6   Bm6   F#m  Bm7/D   A6   Bm6   F#m  Bm7/D 
e|-----|-----|--5--|--5--||-----|-----|--5--|--5--|
B|--5--|--7--|--2--|--3--||--5--|--7--|--2--|--3--|
G|--6--|--7--|--2--|--4--||--6--|--7--|--2--|--4--|
D|--4--|--6--|--4--|-----||--4--|--6--|--4--|-----|
A|-----|-----|-----|--5--||-----|-----|-----|--5--|
E|--5--|--7--|-----|-----||--5--|--7--|-----|-----|


[Chorus]
    A6   Bm6   F#m  Bm7/D   A6   Bm6   F#m  Bm7/D     A6   Bm6   F#m  Bm7/D    A6   Bm6
e|-----|-----|--5--|--5--||-----|-----|--5--|--5--||-----|-----|--5--|--5--||-----|-----|
B|--5--|--7--|--2--|--3--||--5--|--7--|--2--|--3--||--5--|--7--|--2--|--3--||--5--|--7--|
G|--6--|--7--|--2--|--4--||--6--|--7--|--2--|--4--||--6--|--7--|--2--|--4--||--6--|--7--|
D|--4--|--6--|--4--|-----||--4--|--6--|--4--|-----||--4--|--6--|--4--|-----||--4--|--6--|
A|-----|-----|-----|--5--||-----|-----|-----|--5--||-----|-----|-----|--5--||-----|-----|
E|--5--|--7--|-----|-----||--5--|--7--|-----|-----||--5--|--7--|-----|-----||--5--|--7--|


[Intro]
   A7M   F#m7  C#m7   A/D    A7M   D7M   F#m   F#m6  C#7  C#m7/E A/D#  D7M
e|-----|-----|--4--|-9--7--|--4--|-----|--5--|--5--|--4--|--4--|-----|-----|
B|-7-5-|--2--|--5--|-10-10-|--5--|--3--|--2--|--4--|--2--|--2--|--5--|--7--|
G|-6-6-|--2--|--4--|-9--9--|--6--|--6--|--2--|--2--|--4--|--4--|--6--|--6--|
D|-6-6-|--2--|-----|-0--0--|-----|--4--|--4--|--4--|--3--|--2--|--7--|--7--|
A|-0-0-|-----|--4--|-------|--0--|--5--|-----|-----|-----|-----|--6--|--5--|
E|-----|--2--|-----|-------|-----|-----|-----|-----|-----|-----|-----|-----|


[Verse 2]
   A7M   F#m7  C#m7 C#m/D  A6    D7M   F#m   F#m6  C#7  C#m7/E A/D#  D7M
e|-----|-----|--4--|--4--|-----|-----|--5--|--5--|--4--|--4--|-----|-----|
B|--5--|--2--|--5--|--5--|--5--|--3--|--2--|--4--|--2--|--2--|--5--|--7--|
G|--6--|--2--|--4--|--6--|--6--|--6--|--2--|--2--|--4--|--4--|--6--|--6--|
D|--6--|--2--|-----|-----|--4--|--4--|--4--|--4--|--3--|--2--|--7--|--7--|
A|--0--|-----|--4--|--0--|-----|--5--|-----|-----|-----|-----|--6--|--5--|
E|-----|--2--|-----|-----|--5--|-----|-----|-----|-----|-----|-----|-----|


[Chorus 2]
    A6   Bm6   F#m  Bm7/D   A6   Bm6   F#m  Bm7/D     A6   Bm6   F#m  Bm7/D    A6   Bm6    A6
e|-----|-----|--5--|--5--||-----|-----|--5--|--5--||-----|-----|--5--|--5--||-----|-----|--5--|
B|--5--|--7--|--2--|--3--||--5--|--7--|--2--|--3--||--5--|--7--|--2--|--3--||--5--|--7--|--7--|
G|--6--|--7--|--2--|--4--||--6--|--7--|--2--|--4--||--6--|--7--|--2--|--4--||--6--|--7--|--6--|
D|--4--|--6--|--4--|-----||--4--|--6--|--4--|-----||--4--|--6--|--4--|-----||--4--|--6--|--7--|
A|-----|-----|-----|--5--||-----|-----|-----|--5--||-----|-----|-----|--5--||-----|-----|--5--|
E|--5--|--7--|-----|-----||--5--|--7--|-----|-----||--5--|--7--|-----|-----||--5--|--7--|--5--|

            
            
Suggest correction
Creating personal tab
Creating personal tab
You can edit any tab online and save it as your Personal.

You can edit, replace or remove any tab part or add personal notes – all changes will be seen only by you.

Personal tabs can be accessed anytime from any device, even offline.
Learn more »
Give kudos to tab author, rate the tab!
1 2 3 4 5
comments
print report bad tab
guest
You may want to rate the tab now too:
select rating
Wanna post a correction for this tab? Suggest correction