Oops, an error
Loading. Please wait.

Vagalumes Cegos chords

by Cicero
55 views 1 this week
no commentswrite comment
1 2 3 4 5
3 more votes to show rating
add to favorites
×
Save as Personal and add changes to this tab that will be seen only by you. Learn more ›
×
You can save this tab as Personal to edit and correct it or add notes. All changes will be seen only by you. Learn more »
launch autoscroll
font size
0
reset
transpose
0
reset
simplify chords
display chords
guitar tuner
edit
Autoscroll
slow
fast
+/-
esc
set tempo
stop
Strumming
There is no strumming pattern for this song yet. and get +5 IQ
Artist: Cícero
Song: Vagalumes Cegos
Album: Canções de Apartamento
Tabbed by: gustavoaraujo999@hotmail.com
Tuning: Standard (EADGBE)
Capo: 1

   C/E   C4/F   Cm/D# Csus2/D  G#7M  Cm/G  Fsus2  Cm4    Cm(b9) F#7M Fsus2  Cm4
e|--0--|--0--| |--3--|--3--|  |-----|-----|--3--|-----| |--3--|--3--|--3--|-----|
B|--1--|--1--| |--1--|--1--|  |--4--|--4--|--4--|--4--| |--4--|--4--|--4--|--4--|
G|--0--|--0--| |--0--|--0--|  |--5--|--5--|--5--|--5--| |--5--|--5--|--5--|--5--|
D|--2--|--3--| |--1--|--0--|  |--5--|--5--|--3--|--3--| |-----|-----|--3--|--3--|
A|-----|-----| |-----|-----|  |-----|-----|-----|--3--| |--4--|-----|-----|--3--|
E|-----|-----| |-----|-----|  |--4--|--3--|-----|-----| |-----|--4--|-----|-----|


[Intro]
   C/E                       C4/F
   1 & 2 & 3 & 4 & 5 & 6 & | 1 & 2 & 3 & 4 & 5 & 6 & |
e|-0-----0-----0-------0---|-0-----0-----0-------0---|
B|-1-----1-----1-------1---|-1-----1-----1-------1---|
G|-0-----0-----0-------0---|-0-----0-----0-------0---| [x2]
D|-2-------2-------2-------|-3-------3-------3-------|
A|-------------------------|-------------------------|
E|-------------------------|-------------------------|


[Verse 1]
    C/E  C4/F
Nem sei
            C/E  C4/F
Dessa gente toda
             C/E  C4/F
Dessa pressa tanta
            Cm/D#  Csus2/D
Desses dias cheios
           C/E  C4/F
Meios-dias gastos
          C/E  C4/F
Elefantes brancos
          C/E  C4/F
Vagalumes cegos
          Cm/D#  Csus2/D
Meio emperrados

                 G#7M  Cm/G
Entre o meio e o fim
Fsus2      Cm4
Meio     assim


[Interlude]
G#7M  Cm/G  Fsus2
C/E C4/F
C/E C4/F


[Verse 2]
    C/E  C4/F
Nem  sei
             C/E  C4/F
Dessa pressa toda
            C/E  C4/F
Dessa gente tanta
           Cm/D#  Csus/D
Meios-dias feios
           C/E  C4/F
Desses dias chatos
          C/E  C4/F
Vagalumes brancos
          C/E  C4/F(hold)
Elefantes cegos
               Cm/D#  Csus2/D
E o céu engarrafado

         G#7M  Cm/G  Fsus2  Cm4
Fica por aqui
             G#7M  Cm/G  Fsus2  Cm4
Vem cuidar de mim
             C#7M            Cm/G
Vamos ver um filme, ter dois filhos
      Fsus2              Cm4
Ir ao parque discutir caetano
             C#7M  Cm/G  Fsus2  Cm4
Planejar bobagens
            C#7M  Cm/G  Fsus2  Cm4
E morrer de rir

         G#7M                 Cm/G
Fica bem aí que essa luz comprida
            Fsus2          Cm4
Ficou tão bonita em você daqui
         G#7M                 Cm/G
Fica bem aí que essa luz comprida
            Fsus2          Cm4
Ficou tão bonita em você daqui


[Interlude]
Cm(b9) F#7M Fsus2  Cm4
Cm(b9) F#7M Fsus2  Cm4
Cm(b9) F#7M Fsus2  Cm4
Cm(b9) F#7M Fsus2  Cm4


[Outro]
            Cm(b9)
Ninguém vai dizer
            F#7M
Que foi por amor
             Fsus2       Cm4
Todos vão chamar de derrota
           Cm(b9)         F#7M
Vamos esconder nosso cobertor
          Fsus2(hold)    Cm(9xx999)(hold)
E vamos viver sem escolta
Suggest correction
Creating personal tab
Creating personal tab
You can edit any tab online and save it as your Personal.

You can edit, replace or remove any tab part or add personal notes – all changes will be seen only by you.

Personal tabs can be accessed anytime from any device, even offline.
Learn more »
Give kudos to tab author, rate the tab!
1 2 3 4 5
comments
print report bad tab
guest
You may want to rate the tab now too:
select rating
Wanna post a correction for this tab? Suggest correction