Oops, an error
Loading. Please wait.

Arde tab

version 1
version 1

Whole song

10 views 1 this week
no commentswrite comment
1 2 3 4 5
3 more votes to show rating
add to favorites
×
Save as Personal and add changes to this tab that will be seen only by you. Learn more ›
×
You can save this tab as Personal to edit and correct it or add notes. All changes will be seen only by you. Learn more »
launch autoscroll
font size
0
reset
how to read this tab
guitar tuner
edit
Autoscroll
slow
fast
+/-
esc
set tempo
stop
-------------------------|---------------------0---|
-------------------1-----|-------------------1---1-|
-------0-------0-----0---|-------0-------0---------|
---2-----2-2h3---3-----3-|---2-----2-2h3---3-------|
-3---3-------------------|-3---3-------------------|
-------------------------|-------------------------|

-------------------------|---------------------0vvv|
-------1-----------1-----|-------------------1-----|
-----0---------0-----0---|-------0-------0---------|
---2-----2-2h3---3-----3-|---2-----2-2h3---3-------|
-3-----------------------|-3---3-------------------|
-------------------------|-------------------------|

-------------------------|---------------------0---|
-------------------1-----|-------------------1---1-|
-------0-------0-----0---|-------0-------0---------|
-----2---2-2h3---3-----3-|---2-----2-2h3---3-------|
-3-----------------------|-3---3-------------------|
-------------------------|-------------------------|
Me deje matar,               me deje robar el alma

-------------------------|---------------------------|
-------1-----------1-----|---------------------------|
-----0---------0-----0---|-------0-------------------|
---2-----2-2h3---3-----3-|---2-----2---2h3-2-0-------|
-3-----------------------|-3---3---------------3-1-0-|
-------------------------|---------------------------|
pague sin querer,        sin querer te lastimeeee...

-------------------1-----|-------------------1-----|
-----------1---------1---|-----------1---------1---|
-------3-------3-------3-|-------3-------3-------3-|
-----3---3-------3-------|-----3---3-------3-------|
-1-----------------------|-1-----------------------|
-------------------------|-------------------------|
...eee..              Que daria en esta vida

---------------------0---|-------------------------|
-------------------1---1-|-------1-----------1-----|
-------0-------0---------|-----0---------0-----0---|
---2-----2-2h3---3-------|---2-----2-2h3---3-----3-|
-3---3-------------------|-3-----------------------|
-------------------------|-------------------------|
por volver              Amor mio

-------------------1-----|-------------------1-----|
-----------1---------1---|-----------1---------1---|
-------3-------3-------3-|-------3-------3-------3-|
-----3---3-------3-------|-----3---3-------3-------|
-1-----------------------|-1-----------------------|
-------------------------|-------------------------|
                    Que daria en esta vida

-------------------1-----|-------------------1-----|
-----------1---------1---|-----------1---------1---|
-------2-------2-------2-|-------2-------2-------3-|
-----3---3-------3-------|-----3---3-------3-------|
-------------------------|-------------------------|
-1-----------------------|-1-----------------------|
por volver


DO
Me deje atrapar

por la selva de los ruidos

Nunca imagine
                 FA9
que seria mi destino

Que daria en esta vida
       DO
por arder
      FA9
Amor mio

Que daria en esta vida
       FA
por arder

El bar de la esquina,
rutas de melancolia
y una guitarra loca
en el anden de las heridas
Remendando infiernos,
tras las ruinas del olvido
y una guitarra loca
que me arranca los sentidos

Me deje arropar
y quedarme asi dormido
desperte sin vos,
pero me guardo este grito
Que daria en esta vida
por volver
Amor mio
Que daria en esta vida
por volver

FA9: 1 1 3 3 1 1


OJO, FALTAN PARTES QUE TODAVIA NO SAQUE
(EL SOLO, POR DECIR, NOMAS...), ESPERO QUE LES SIRVA
Aguante Rosario!!!!

            
            
Suggest correction
Creating personal tab
Creating personal tab
You can edit any tab online and save it as your Personal.

You can edit, replace or remove any tab part or add personal notes – all changes will be seen only by you.

Personal tabs can be accessed anytime from any device, even offline.
Learn more »
Give kudos to tab author, rate the tab!
1 2 3 4 5
comments
print report bad tab
guest
Wanna post a correction for this tab? Suggest correction