Oops, an error
Loading. Please wait.

Belicosis tab

21 views 1 this week
no commentswrite comment
1 2 3 4 5
3 more votes to show rating
add to favorites
×
Save as Personal and add changes to this tab that will be seen only by you. Learn more ›
×
You can save this tab as Personal to edit and correct it or add notes. All changes will be seen only by you. Learn more »
launch autoscroll
font size
0
reset
how to read this tab
guitar tuner
edit
Autoscroll
slow
fast
+/-
esc
set tempo
stop
Intro

Dm Am G
Dm F Em G Gm F


C
Pido perdón por ser el peso en tus ojos,
F                      G                       Dm
Gran parte de esta verdad grita deforme y espanta,
Bb                                F
Bajo ese mazo se esconden tus caras.

Dm Am G

C
Un vacío invernal y esto enloquecerá,
F                      G                      Dm
Quiero encontrar el lugar para esta luna enferma,
Bb                                     F
Cuando fisura el mundo acá es donde tiemba.

           Dm                  F
Viendo refugios que arden y caen,
             Dm                    Em           Dm  Am  G
Latiendo hasta el final esto es nuestro es tan real

Dm              F                         G
Dame, dame tu plan que son los días de ejecución
Bb                  F            G               Dm F
Si esto es lo que creo los que caen somos vos y yo,
       Dm        G
Somos vos y yo.

C
Esta arteria es final, Simulación del caos
F                   G                     Dm
vieja dolencia que nunca da respiro y avanza
Bb                        F
La precisión la falta estocada.

           Dm                  F
Viendo refugios que arden y caen,
             Dm                    Em           Dm  Am  G
Latiendo hasta el final esto es nuestro es tan real

Dsus2 F G
Dsus2 F Bbmaj7* Am G Gm
Dm

Puente:

e |---------------------------------------------------------------|
B |--6-8--6------0-8-6---0-8--------5-------5------5--------------|
G |-7-7---=7-5-7------7-7----7---7---7---7---7---7--7--7-7-7-7-7-7|
D |--------------------9------9-7-7---7-8-8---8-9-9--9------------|
A |----------------------------------------------------5-5-5-5-5-5|
E |---------------------------------------------------------------|


X2

En la segunda vuelta, otra guitarra hace:

e ----------------------------------------------|
B -9^-10^10---10/8-8/6-6--7^-6/5-5/3-3/6-6------|
G ----------------------------------------------|
D ----------------------------------------------|
A ----------------------------------------------|
E ----------------------------------------------|


e |---------|
B |---------|
G |---------|
D |-------7-|
A |-3/5/3-5-|
E |---------|
Aca en realidad termina con un D pero mas grave que la afinacion normal

Solo: (base: Dm F G Gm)

e |----------------------------------------------
B |----------------12^12-10----------------------
G |------------------------12-10-9h10-12-10-9h10-
D |----------------------------------------------
A |-5555-5/9-9999--------------------------------
E |----------------------------------------------

e --------------------10-10h12-12^p10-----------|
B ----10-11-10--10-11---------------------------|
G -12---------12--------------------------------|
D ----------------------------------------------|
A ----------------------------------------------|
E ----------------------------------------------|


e |----------------------------------------------
B |----------------12^12-10----------------------
G |------------------------12-10-9h10-12-10-9h10-
D |----------------------------------------------
A |-5555-5/9-9999--------------------------------
E |----------------------------------------------


e --------------------10-12h13-12^12^12^12^-----|
B ----10-11-10--10-11---------------------------|
G -12---------12--------------------------------|
D ----------------------------------------------|
A ----------------------------------------------|
E ----------------------------------------------|


Dm              F                         G
Dame, dame tu plan que son los días de ejecución
Bb                  F            G
Si esto es lo que creo los que caen somos

Dm              F                         G
Dame, dame tu plan que son los días de ejecución
Bb                  F            G       (mute)
Si esto es lo que creo los que caen somos


Dsus2
E 0
B 3
G 2
D 0
A x
E x

Bbmaj7*
E 0
B 3
G 2
D 3
A 1
E x
Suggest correction
Creating personal tab
Creating personal tab
You can edit any tab online and save it as your Personal.

You can edit, replace or remove any tab part or add personal notes – all changes will be seen only by you.

Personal tabs can be accessed anytime from any device, even offline.
Learn more »
Give kudos to tab author, rate the tab!
1 2 3 4 5
comments
print report bad tab
guest
Wanna post a correction for this tab? Suggest correction