Oops, an error
Loading. Please wait.

Cable Luz tab

version 1
version 1

Whole song

30 views 1 this week
no commentswrite comment
1 2 3 4 5
3 more votes to show rating
add to favorites
×
Save as Personal and add changes to this tab that will be seen only by you. Learn more ›
×
You can save this tab as Personal to edit and correct it or add notes. All changes will be seen only by you. Learn more »
launch autoscroll
font size
0
reset
how to read this tab
guitar tuner
edit
Autoscroll
slow
fast
+/-
esc
set tempo
stop
esta cancion taba en los pedidos asi ke me
parece ke es esto lo ke faltaba
cualkier cosa pab10_38@

1|--15--14-----|--12/14--12-----|-----------------------------|
2|----------12-|-------------10-|--12/15--12-15/17--17-17-15--|
3|-------------|----------------|-----------------------------|
4|-------------|----------------|-----------------------------|
5|-------------|----------------|-----------------------------|
6|-------------|----------------|-----------------------------|

1|--14/15-----|
2|---------12-|
3|------------|
4|------------|
5|------------|
6|------------|

y vuelvo a ser, un vuelo sin color
1|--14/15-----|
2|---------12-|
3|------------|
4|------------|
5|------------|
6|------------|

mi ser se va ...
1|----------------------|--------------0-|-------|
2|--17--15--------------|----------15----|-------|
3|----------17-16*--14--|------17--------|--x15--|
4|----------------------|--19------------|-------|
5|----------------------|----------------|-------|
6|----------------------|----------------|-------|

espero ke sirva saludos a todos

PAB10 nTvG |38| CRzzO   vamo promo 08 fatima CBA
Suggest correction
Creating personal tab
Creating personal tab
You can edit any tab online and save it as your Personal.

You can edit, replace or remove any tab part or add personal notes – all changes will be seen only by you.

Personal tabs can be accessed anytime from any device, even offline.
Learn more »
Give kudos to tab author, rate the tab!
1 2 3 4 5
comments
print report bad tab
guest
Wanna post a correction for this tab? Suggest correction