Oops, an error
Loading. Please wait.

Caminando chords

54 views 1 this week
no commentswrite comment
1 2 3 4 5
3 more votes to show rating
add to favorites
×
Save as Personal and add changes to this tab that will be seen only by you. Learn more ›
×
You can save this tab as Personal to edit and correct it or add notes. All changes will be seen only by you. Learn more »
launch autoscroll
font size
0
reset
transpose
0
reset
display chords
guitar tuner
edit
Autoscroll
slow
fast
+/-
esc
set tempo
stop
Strumming
There is no strumming pattern for this song yet. and get +5 IQ
Intro: A F A F x2

Riff
e|---------------------------------------
B|---------------------------------------
G|--4/6-4-2-4/5-4-2-4/6-6b7b6------------
D|---------------------------5^7-7b8b7---
A|---------------------------------------
E|---------------------------------------

e|---------------------------------------
B|---------------------------------------
G|--4/6-4-2-4/5-4-2-4/6-6b7b6-7/9-9b10b9-
D|---------------------------------------
A|---------------------------------------
E|---------------------------------------


A
Me vi caminando,
   F                   G            A
buscando las luces que bajan por tu calle
A                          G                F
recordaba cuando el sol brillaba en toda tu cara
A                         G              F
y despacio me escondí tranquilo por esas cuadras
         G
por esas cuadras...


Riff


A
Te vi caminando,
   F                G              A
llegando con cruces bajando por mi calle
A                          G            F
vos decías que este sol quemaba toda tu cara
A                             G              F
y con el tiempo lo entendí no quedan ni esas brasas
          G
ni esa tu casa...


Riff


A
Me vi caminando
F                    G            A
usando las luces que bajan por tu calle
A                             G            F
Vos esperabas que este sol quemara toda tu cara
     A                G              F
pero esto no es así jugamos en otras casas
                G
y son otras las cuadras...

D

A
Seguí bebiendo amor
     G                      D
de lo que no te puede destruir
         F
no bebas tanto de mi
A
Los que tienen razón
   G                         D
decían la violencia estaba ahí
          F
era un perfecto extraño
    G                      A
hoy suelto tus manos por vivir.
          F
era un perfecto extraño
    G                      A
hoy suelto tus manos por vivir.


Final

e|---------------------------------------
B|---------------------------------------
G|--4/6-4-2-4/5-4-2-4/6-7b6--------------
D|-------------------------5^7-7b8b7-----
A|---------------------------------------
E|---------------------------------------

e|--------------------------------------------------------
B|---------------------------------------------5-----5----
G|--4/6-4-2-4/5-4-2-4/6-6b7b6-7/9-9--9/7-4/5--5--4---7b8--
D|--------------------------------------------------------
A|--------------------------------------------------------
E|--------------------------------------------------------


Aclaraciones: Las notas suenan mejor si las hacen con cejillas.
El riff varía un poco cada vez que lo toca, es cuestión de
escucharlo y ver como es.
No estoy seguro de que este bien, cualquier cosa avisen
y lo corrijo (matideyong@
Abrazzo

--]Rey Chatran[--

            
            
Suggest correction
Creating personal tab
Creating personal tab
You can edit any tab online and save it as your Personal.

You can edit, replace or remove any tab part or add personal notes – all changes will be seen only by you.

Personal tabs can be accessed anytime from any device, even offline.
Learn more »
Give kudos to tab author, rate the tab!
1 2 3 4 5
comments
print report bad tab
guest
Wanna post a correction for this tab? Suggest correction