Oops, an error
Loading. Please wait.

De Caer tab

version 2
version 2

Whole song

20 views 1 this week
no commentswrite comment
1 2 3 4 5
3 more votes to show rating
add to favorites
×
Save as Personal and add changes to this tab that will be seen only by you. Learn more ›
×
You can save this tab as Personal to edit and correct it or add notes. All changes will be seen only by you. Learn more »
launch autoscroll
font size
0
reset
how to read this tab
guitar tuner
edit
Autoscroll
slow
fast
+/-
esc
set tempo
stop
Intro:
                              __________ X3 ____________
e|----------------------------|--------------------------|
B|----------------------------|--------------------------|
G|----------------------------|--------------------------|
D|-3---3--3--3--3--3--3--3--3-|---3--3--3--3--3--3--3--3-|
A|---1--1--0--0--3--3---------|-1--1--0--0--3--3---------|
E|---------------------3--3---|-------------------3--3---|

 Dm   F   Bb            Dm  F   Bb         A
e|--------------------------------------------|
B|--------------------------------------------|
G|--------------------------------------------|
D|-3---3---3h5-6h5-3-----3---3---3h5-6h5-3----|
A|---5---5-----------3h5---5---5------------0-|
E|--------------------------------------------|

Verso
Dm
Solo las grietas de la calle,
Bb
dibujan vida en la tarde
A
y se aparecen recordando
Bb                    Dm
las mil figuras que pasaron.
Ahi vas corriendo y sos impura,
Bb
dejas la vida en otro lado
A
y te apareces recordando
Bb                    Dm
las mil figuras que pasaron.

C                      Dm
Caera la noche y antes de caer
C               A      Riff
Caera la noche y antes de caer


Verso
Es tan inerte este silencio
que trae olores de otros años,
se fue callando el gato viejo
fueron los ultimos tejados.
La tarde es alma de ventanas,
las grietas nunca dan revancha
y en este duelo gana el tiempo
y mi bostezo es un desgarro.


C                      Dm
Caera la noche y antes de caer
C               A      Riff x2
Caera la noche y antes de caer

 Dm   F   Bb            Dm  F   Bb
e|-----------------------------------------|
B|-----------------------------------------|
G|-----------------------------------------|
D|-3---3---3h5-6h5-3-----3---3---3h5-6h5-3-|
A|---5---5-----------3h5---5---5-----------|
E|-----------------------------------------|

   A        Gm       Dm
Y asi se termina una vaga sensacion
    Bb                      Gm
ese rayo fue el disfraz del dia,
   A              Dm          Bb
un nudo de alucinacion, la persiana y su rumor
       Gm
tu silueta se esfumo.

 Dm   F   Bb            Dm  F   Bb         A
e|--------------------------------------------|
B|--------------------------------------------|
G|--------------------------------------------|
D|-3---3---3h5-6h5-3-----3---3---3h5-6h5-3----|
A|---5---5-----------3h5---5---5------------0-|
E|--------------------------------------------|

Solo Sobre: Dm Bb A Bb
            Dm Bb A Bb Dm

C                      Dm
Caera la noche y antes de caer...
C               A      Riff x2
Caera la noche y antes de caer...

 Dm   F   Bb            Dm  F   Bb         A
e|--------------------------------------------|
B|--------------------------------------------|
G|--------------------------------------------|
D|-3---3---3h5-6h5-3-----3---3---3h5-6h5-3----|
A|---5---5-----------3h5---5---5------------0-|
E|--------------------------------------------|

   A        Gm       Dm
Y asi se termina una vaga sensacion
    Bb                      Gm
ese rayo fue el disfraz del dia,
   A              Dm          Bb
un nudo de alucinacion, la persiana y su rumor
       Gm
tu silueta se esfumo.
   A          Gm        Dm
Y asi se termina, la ventana enmudecio
    Bb             C            C#       Dm
ese mundo se perdio y ahora son trozos lugar de ruinas,
Bb                  Gm             A        Bb
dejo todo esto pero siento que vuelvo a empezar.

Final

Dm F Bb  Dm F Bb


Riff
e|---------------------------------|
B|---------------------------------|
G|---------------------------------|
D|-3-3-3-3-3-3-3-3-5-5-5-5---------|
A|-1-1-1-1-0-0-0-0-3-3-3-3-5-5-5-5-|
E|-------------------------3-3-3-3-|

hay que escuchar el tema para agarrarlo sobre todo en la
ultima parte que hay que hacer un puequeño silencio entre
que termina de decir "pero" y empieza a decir "Siento"
y entre "que" y "Vuelvo"
Un tema muy bueno si tienen dudas consultenlas x mail
Suggest correction
Creating personal tab
Creating personal tab
You can edit any tab online and save it as your Personal.

You can edit, replace or remove any tab part or add personal notes – all changes will be seen only by you.

Personal tabs can be accessed anytime from any device, even offline.
Learn more »
Give kudos to tab author, rate the tab!
1 2 3 4 5
comments
print report bad tab
guest
Wanna post a correction for this tab? Suggest correction