Oops, an error
Loading. Please wait.

Langosta chords

15 views 1 this week
no commentswrite comment
1 2 3 4 5
3 more votes to show rating
add to favorites
×
Save as Personal and add changes to this tab that will be seen only by you. Learn more ›
×
You can save this tab as Personal to edit and correct it or add notes. All changes will be seen only by you. Learn more »
launch autoscroll
font size
0
reset
transpose
0
reset
simplify chords
display chords
guitar tuner
edit
Autoscroll
slow
fast
+/-
esc
set tempo
stop
Strumming
There is no strumming pattern for this song yet. and get +5 IQ
LANGOSTA

Intro
F#m C#m D F F#m E D F

F#m       C#m
Llegó la inundación,
           D
y se llevo todo
         F           F#m
no queda nada por perder.
                    E
Quien nos enseña el juego
                    D
es el que marca los naipes,
          F
es el que tiende a complacer.
Bm            E                   A    A7
Vivir en esta tierra, se paga con hambre
Bm           E                A    A7
nuestra dignidad, se paga con hambre
            G
se paga con hambre.

e|-----------------------------|
B|-----------------------------|
G|-----------------------------|
D|-4-------------------------2-|
A|-4-----3-------3-------3---2-|
E|-2-2-5---2-2-5---2-2-5---5-0-|

F#m        C#m
Llegó la información
              D
comandando la nave
        F            F#m
cacique de la esclavitud
                   E
y que nos venden ahora
                  D
la democracia que llora
         F
suben mentiras al poder.
Bm            E                   A    A7
Vivir en esta tierra, se paga con hambre
Bm           E                A    A7
nuestra dignidad, se paga con hambre
            G
se paga con hambre.

A
Lotearon el mundo
  Adim
pedazo sin rumbo
   Bm                    E
la sangre se escapa otra vez.
   A
Langosta del norte
  Adim
comiendo en el monte
  Bm               E
matame y deja de joder,
          F#m
deja de joder.

e|-----------------------------|
B|-----------------------------|
G|-----------------------------|
D|-4-------------------------2-| X 2
A|-4-----3-------3-------3---2-|
E|-2-2-5---2-2-5---2-2-5---5-0-|

F#m       C#m
Llegó la inundación,
           D
y se llevo todo
         F           F#m
no queda nada por perder.
                    E
Quien nos enseña el juego
                    D
es el que marca los naipes,
          F
es el que tiende a complacer.


Solo Sobre Bm E A Bm E A G F#m


[esto es lo que hace el bajo lo hace tres veces
variando la cantidad de veces que toca
algunas notas y engancha con la otra parte]

 F#m          E

G|-------------------|   |--------------|
D|-4--4----4-7-6-----|x3 |----------6---|
A|--4----4-------7---|   |-4-7-7--7---7-|
E|-----------------7-|   |--------------|

A
Lotearon el mundo
  Adim
pedazo sin rumbo
   Bm                    E
la sangre se escapa otra vez.
   A
Langosta del norte
  Adim
comiendo en el monte
  Bm               E
matame y deja de joder,
          F#m
deja de joder.
A
Lotearon el mundo
  Adim
pedazo sin rumbo
   Bm                    E
la sangre se escapa otra vez.
   A
Langosta del norte
  Adim
comiendo en el monte
  Bm               E
matame y deja de joder,
          F#m
deja de joder.

e|-----------------------------|
B|-----------------------------|
G|-----------------------------|
D|-4-------------------------2-| X 4 pero en la tercera rep acentúa
A|-4-----3-------3-------3---2-|     en el primer DO(3)
E|-2-2-5---2-2-5---2-2-5---5-0-|


 F#m          E

G|-------------------|
D|-4--4----4-7-6-----|
A|--4----4-------7---|
E|-----------------7-|


             F#m      E
Voy a ver el sol
             F#m      E
Voy a ver el sol
             F#m      E
Voy a ver el sol...(para volver)
             F#m      E
Voy a ver el sol...(para volver)

Final
             F#m
Voy a ver el sol


  Adim  ó  Adim
|--X--|   |--2--|
|--7--|   |--1--|
|--5--|   |--2--|
|--7--|   |--1--|
|--6--|   |--X--|
|--X--|   |--X--|

            
            
Suggest correction
Creating personal tab
Creating personal tab
You can edit any tab online and save it as your Personal.

You can edit, replace or remove any tab part or add personal notes – all changes will be seen only by you.

Personal tabs can be accessed anytime from any device, even offline.
Learn more »
Give kudos to tab author, rate the tab!
1 2 3 4 5
comments
print report bad tab
guest
Wanna post a correction for this tab? Suggest correction