Oops, an error
Loading. Please wait.

Por Llegar tab

version 1
version 1

Whole song

42 views 1 this week
no commentswrite comment
1 2 3 4 5
3 more votes to show rating
add to favorites
×
Save as Personal and add changes to this tab that will be seen only by you. Learn more ›
×
You can save this tab as Personal to edit and correct it or add notes. All changes will be seen only by you. Learn more »
launch autoscroll
font size
0
reset
how to read this tab
guitar tuner
edit
Autoscroll
slow
fast
+/-
esc
set tempo
stop
                |
Intro:          v
Em C G   Em C C/G C/F#    Em C G C G D
                ^ aquí empieza este punteo:
                | 
e|----12v--10----------------------------------------------||
B|-12---------13-12h13-12-----13-10------------------------||
G|------------------------12--------12--11--12-12-12-11-11-||
D|---------------------------------------------------------||
A|---------------------------------------------------------||
E|---------------------------------------------------------||

e|---------------------------------------------------------|
B|-8-8---8-8h10-8------------------------------------------|
G|-7-7-------------9-7-7h9-7h9p7---------------------------| * arreglo 1
D|-------------------------------9-7-7h9-7-------5-7-5---5-|
A|-------------------------------------------5-7-------7---|
E|---------------------------------------------------------|
      C         G
D|-----------|-----0-|
A|-3-3-2-0---|-2-3---| ** arreglo 2
E|---------3-|-------|

e|-------0-|                e|---------------------------------|
B|-------1-|                B|-7h8-7---7h8-7---7h8-7-----------| **** arreglo 4
G|-------0-|                G|-------9-------9-------9-8h9-(7)-|
D|-------2-| *** arreglo 3
A|-2-2-3-3-|
E|---------|

G         C*     Em              D
 Rebota intenso un latido abriéndome el pecho
y en un segundo se multiplica y se hace estallidos.

Imagen de almas que me recuerdas a toda ausencia
baja hasta el suelo toda alegría que había en mi cielo.

         C **        G              D          Dsus4 D
Cada vez más... tristeza y dolor siempre por llegar
Cada vez más... tristeza y amor siempre por llegar.

C ***                            G          Em    C
  ¿Dónde te escapas cuando una lágrima te viene a buscar?
  Entre los puños ahogas palabras que ya no se irán...
      Em **** C           Em      C        Em
el silencio será todo un tiempo para esperar.

Inter:
Em C G   Em C C/G C/F#    Em C G C G D

Entre tus alas, me mortificas con tus caricias
y allá me sueltas, allá en lo alto, cayendo lento

Cada vez más... tristeza y amor siempre por llegar
Cada vez más... tristeza y dolor siempre por llegar.

¿Dónde te escapas cuando una lágrima te viene a buscar?
Entre los puños ahogas palabras que ya no se irán...
el silencio será todo un tiempo para esperar.

Inter:

e|-----------------------------------------------------------|>
B|-----------------3-1-0h1p0-------------------3-5-0--12arm--|>
G|---------0-0h2-0---------------------0-0h2-0--------12arm--|>
D|-2h4-2-4---------------------2h4-2-4-----------------------|>
A|-----------------------------------------------------------|>
E|-----------------------------------------------------------|>

e|------------2-3-3h5-3--10-8-7---------7v--7---------7--------7------|>
B|-----3-3h5------------------8-8---8v------8-10-8-10-----8-10---10-8-|>
G|-3h4------------------------9---9---------9-----------9-------------|>
D|----------------------------9-------------9-------------------------|>
A|--------------------------------------------------------------------|>
E|--------------------------------------------------------------------|>

e|-----------------------7-----------0-||
B|-7-7-7-7-8-8-8-8-10-10---10--------1-||
G|-----------------------------------0-||
D|-----------------------------------2-||
A|-----------------------------2-2-3-3-||
E|-------------------------------------||

¿Dónde te escapas cuando una lágrima te viene a buscar?
Entre los puños ahogas palabras que ya no se irán...

Puente, velozmente:
C D Em G D

¿Dónde te escapas cuando una lágrima te viene a buscar?
el silencio será (el silencio será...)
todo un tiempo para (todo un tiempo para...)
y el silencio será (el silencio será...) más...

            
            
Suggest correction
Creating personal tab
Creating personal tab
You can edit any tab online and save it as your Personal.

You can edit, replace or remove any tab part or add personal notes – all changes will be seen only by you.

Personal tabs can be accessed anytime from any device, even offline.
Learn more »
Give kudos to tab author, rate the tab!
1 2 3 4 5
comments
print report bad tab
guest
Wanna post a correction for this tab? Suggest correction