Oops, an error
Loading. Please wait.

Santos tab

version 1
version 1

Whole song

35 views 3 this week
no commentswrite comment
1 2 3 4 5
3 more votes to show rating
add to favorites
×
Save as Personal and add changes to this tab that will be seen only by you. Learn more ›
×
You can save this tab as Personal to edit and correct it or add notes. All changes will be seen only by you. Learn more »
launch autoscroll
font size
0
reset
how to read this tab
guitar tuner
edit
Autoscroll
slow
fast
+/-
esc
set tempo
stop
~~  : ESTIRAR

/  : LIGADO

 INTRO:

|-|---------------------------------------------------
|-|---------------------------------------------------
|-|-12~~-12----12-------------------------------------
|-|---------14----14--12--10--12--9--------9-10-12~~--
|-|----------------------------------8/10-------------
|-|---------------------------------------------------


Bajo santos de mi oración
y me arrodillo frente a tu cara
y en esa tierra arde a mi oración,
estás atado a una columna de sed
acribillado sin motivo y ninguna fe,
y esa extraña verdad y esa turbia versión
que hoy desaparece, que hoy desaparece.


|-|-----------------------------------------------------------
|-|-----------------------------------------------------------
|-|-12~~-12----12---------------------------------------------
|-|---------14------14-12--10--12--9---------9-10-12--10-9-7--
|-|-----------------------------------8/10--------------------
|-|-----------------------------------------------------------


|-|----------------------------------------------------------------
|-|----------------------------------------------------------------
|-|-12~~-12----12-14-16-12/14-16--14-16-19-17-16-17-19-19-17-16~~-
|-|---------14-----------------------------------------------------
|-|----------------------------------------------------------------
|-|----------------------------------------------------------------


Nace del barro esta mi flor
y cuando toca el aire se quema
y va cayendo seca y rueda a tus pies
esta conciencia es tan ilogica sé
que ahí me ahogo me encuentro
y vuelvo a nacer,
un retrato de vos, un paisaje una flor,
son días de fiebre.

Mientras miras cristales estallándome
hundido tan lejano y mas fugaz
vuelvo a tu raíz

            
            
Suggest correction
Creating personal tab
Creating personal tab
You can edit any tab online and save it as your Personal.

You can edit, replace or remove any tab part or add personal notes – all changes will be seen only by you.

Personal tabs can be accessed anytime from any device, even offline.
Learn more »
Give kudos to tab author, rate the tab!
1 2 3 4 5
comments
print report bad tab
guest
Wanna post a correction for this tab? Suggest correction