Oops, an error
Loading. Please wait.

Santos tab

version 2
version 2

Whole song

34 views 1 this week
no commentswrite comment
1 2 3 4 5
3 more votes to show rating
add to favorites
×
Save as Personal and add changes to this tab that will be seen only by you. Learn more ›
×
You can save this tab as Personal to edit and correct it or add notes. All changes will be seen only by you. Learn more »
launch autoscroll
font size
0
reset
how to read this tab
guitar tuner
edit
Autoscroll
slow
fast
+/-
esc
set tempo
stop
Intro

---5--------------------------------------------------
--(6)----8--5--8--5-----------------------------------
--(7)------------------7---5---5>7--4------4--5--7(b)-
--(7)-----------------------------------5>7-----------
------------------------------------------------------
------------------------------------------------------

Bajo santos de mi oración
y me arrodillo frente a tu cara
y en esa tierra arde mi oración
estas atado a esa columna de sed
acribillado sin motivo y ninguna fe
y esa extraña verdad y esa turbia vision
que hoy desaparece, que hoy desaparece.

Desp

----------------------------------------------
----------------------------------------------
---~14--12----12------------------------------
------------14-----14--12--10--10s12--9----5>7
----------------------------------------------
----------------------------------------------

--------------------------------
--------------------------------
-4>5--5--5s7---5>7<5>7<5s4------
-----------------------------7--
--------------------------------
--------------------------------

-----------------------------------------------
-----------------------------------------------
----~14--12----12--14--14s16----12>14--16s17---
------------14---------------------------------
-----------------------------------------------
-----------------------------------------------

------------------------------------------
----------------------15-----15--13--12~--
-17s19--17--16--17--12--------------------
------------------------------------------
------------------------------------------
------------------------------------------

Nace del barro esta mi flor
y cuando toca el aire se quema
y va callendo seca y rueda a tus pies
esta conciencia es tan ilógica sé
que ahí me ahogo, me encuentro y vuelvo a nacer
un retrato de voz, un paisaje una flor
los dias de fiebre.

Mientras miras cristales estallandome
hundido tan lejano y mas fugaz
vuelvo a tu raíz.

Estas atado............

-----------------------------------------------
-----------------------------------------------
---~14--12----12-------------------------------
------------14-----14--12--10--10s12--9----5>7-
-----------------------------------------------
-----------------------------------------------

------------------------
------------------------
------4>5-5s7--5--4-----
--------------------7---
------------------------
------------------------

-----------------------------------------------
-----------------------------------------------
----~14--12----12--14--14s16----14--16--17s19--
--------------14-------------------------------
-----------------------------------------------
-----------------------------------------------

------------------------------
------------------------------
17--16---17s19----19--17--16~-
------------------------------
------------------------------
------------------------------

Mientras miras cristales estallandome
tan fugaz,
vuelvo a tu raíz.
                                             ___
----------------------------------------------  |
----------------------------------------------  |
----------------------------------------------  |
---7-7-7-6-6-7-7-----10-10-10-11-11-11-11-11--  |
---7-7-7-6-6-7-7-----10-10-10-11-11-11-11-11--  |
---5-5-5-4-4-5-5------8--8--8--9--9--9--9-9---  |
                                                |
                                                |X2
------------------------------------            |
------------------------------------            |
---7-7-7-9--10s13---13-13-13-9--10--            |
---x-x-x-x--xsx-----x--x--x--x--x---            |
---5-5-5-7--8s11----11-11-11-7--8---            |
------------------------------------         ___|

------------------------------------------------
------------------------------------------------
------------------------------------------------
---7-7-7-6-6-7-7-----10-10-10-11-11-11-11-11-11-
---7-7-7-6-6-7-7-----10-10-10-11-11-11-11-11-11-
---5-5-5-4-4-5-5------8--8--8--9--9--9--9-9--9--

-----------------------------------------------
-----------------------------------------------
--7-7-7-9--10s16--16-16-16--17-19-19-----------
--x-x-x-x--xsx----x--x---x---x--x--x-----------
-5-5-5-7--8s14----14-14-14--15-17-17-----------
-----------------------------------------------

-----------------------------------------------
-----------------------------------------------
-----------------------------------------------
---7-7-7-6-6-7-7-----10-10-10-11-11-11-11-11---
---7-7-7-6-6-7-7-----10-10-10-11-11-11-11-11---
---5-5-5-4-4-5-5------8--8--8--9--9--9-9--9----

            
            
Suggest correction
Creating personal tab
Creating personal tab
You can edit any tab online and save it as your Personal.

You can edit, replace or remove any tab part or add personal notes – all changes will be seen only by you.

Personal tabs can be accessed anytime from any device, even offline.
Learn more »
Give kudos to tab author, rate the tab!
1 2 3 4 5
comments
print report bad tab
guest
Wanna post a correction for this tab? Suggest correction