Oops, an error
Loading. Please wait.

Sin Salida tab

7 views 1 this week
no commentswrite comment
1 2 3 4 5
3 more votes to show rating
add to favorites
×
Save as Personal and add changes to this tab that will be seen only by you. Learn more ›
×
You can save this tab as Personal to edit and correct it or add notes. All changes will be seen only by you. Learn more »
launch autoscroll
font size
0
reset
how to read this tab
guitar tuner
edit
Autoscroll
slow
fast
+/-
esc
set tempo
stop
CORREGIDO

INTRO: C D C D
       Ddim5 D Ddim5 D
         C          D       C          D            D
3 --9(10-9)---7--5--7--9(10-9)---7--5--7---7/9--7-9/11---
4 -------------------------------------------------------
5 -------------------------------------------------------
              Ddim5     D             Ddim5    D
3 --14--11-14-13--11-13-14--11-13-14--13/14/13-11-13-14-11-13-14
4 --------------------------------------------------------------
5 --------------------------------------------------------------
                     C          D       C          D
3 --11/13/11-9--9(10-9)---7--5--7--9(10-9)---7--5--7....
4 --------------------------------------------------
5 --------------------------------------------------
1)
D                             G
Vayas a dónde vayas la lluvia te va a alcanzar
   Bm                                D(riff1)
tenés que hacerte amigo de esta tormenta.
RIFF1:
1 ---2--3---5>>
2 ---3---------
3 ---2---------

D                             G
Y si te ensuciás con barro los zapatitos de charol
   Bm                                  D(riff1)
ya fue, total en la hoguera todo se quema.

2)
     G
Hay alguien que espera por vos
                                     D(riff2)
más allá de este sol, más allá de la esfera.
RIFF2:
2 --7-7-7-7/5--5-5/3---3
3 --8-8-8-8/6--6-6/4---4

G                                                  D(riff2)
Desaparece en la bruma todo lo que fuga de la madre tierra.
     C             Bm                 A#    D
Pero vos... sos tan veloz... sos superior.

INTRO

1)
Hay un Dios dentro de cada bicho que camina
la realidad es la verdad que nos da esta mentira.
Jugando a la vaca loca te vas a morir de pie
...ya fue, total en la hoguera todo se quema...

2)
Hay alguien...

INTRO

Espero que les sirva esta corrección.
EL GHIRI.
Suggest correction
Creating personal tab
Creating personal tab
You can edit any tab online and save it as your Personal.

You can edit, replace or remove any tab part or add personal notes – all changes will be seen only by you.

Personal tabs can be accessed anytime from any device, even offline.
Learn more »
Give kudos to tab author, rate the tab!
1 2 3 4 5
comments
print report bad tab
guest
Wanna post a correction for this tab? Suggest correction