Oops, an error
Loading. Please wait.

El Mismo Diablo tab

by Cienfue
44 views 1 this week
no commentswrite comment
1 2 3 4 5
3 more votes to show rating
add to favorites
×
Save as Personal and add changes to this tab that will be seen only by you. Learn more ›
×
You can save this tab as Personal to edit and correct it or add notes. All changes will be seen only by you. Learn more »
launch autoscroll
font size
0
reset
how to read this tab
guitar tuner
edit
Autoscroll
slow
fast
+/-
esc
set tempo
stop
Afinación Normal (E A D G B E)

Intro (bajo transcrito a guitarra)

----------------------------
----------------------------
----------------------------
----------------------------
------0--3--5--7-7----------
----------------------------


Estribillo (0:11)

-------5--------------------
---0-------0--5--1----------
----------------------------  x 4 veces
----------------------------
----------------------------
----------------------------

----------------------------
----------------------------
----------------------------
----------------------------
------0--3--5--7-7----------
----------------------------

El mismo diablo se ha aparecido
a media noche en cuatro caminos

(0:33)

-------5--------------------
---0-------0--5--3----------
----------------------------  x 4 veces
----------------------------
----------------------------
----------------------------

Al mismo diablo yo lo he vendido


luego (0:38)
-------5--------------------
---0-------0--5--1----------
----------------------------  x 4 veces
----------------------------
----------------------------
----------------------------

Mi alma a cambio de este sonido


Coro (0:44)

Re (5ta)
----------
----------
----------   - C (Acorde)   -  E (acorde)  -  Am (acorde)
----------
---5------
----------

Si te preguntan por mí
yo me fuí pa'el mismo diablo
Si te preguntan por mí
yo me fuí pa'el mismo diablo


Durante el coro hay una guitarra tocando el estribillo
-------5--------------------
---0-------0--5--1----------
----------------------------  x 4 veces
----------------------------
----------------------------
----------------------------


Estribillo

El mismo diablo en cuato caminos
puso los cuernos yo soy testigo
del mismo diablo...

(1:18)

----------------------------
----------------------------
----------------------------
------0--3--5--7-7----------
----------------------------
----------------------------

...que siempre he sido
diablido sucio
me voy contigo pa'el mismo infierno...

(1:25)
----------------------------
----------------------------
----------------------------
----------------------------
------0--3--5--7-7----------
----------------------------

y pa'el mismo diablo


Coro (1:26)

Re (5ta)
----------
----------
----------   - C (Acorde)   -  E (acorde)  -  Am (acorde)
----------
---5------
----------

Si no me vuelven a ver
me llevó el mismo diablo
Si te preguntan por mí
yo me fuí pa'el mismo diablo


Durante el coro hay una guitarra tocando el estribillo
-------5--------------------
---0-------0--5--1----------
----------------------------  x 4 veces
----------------------------
----------------------------
----------------------------


Puente - Solo
(1:46)

------------------------------------------
-----------------------------5--------5---
------7-5---------5-7------7---------7----
------7-5--------5-------5----------5-----
--0--------7-5-------7---------7----------
------------------------------------------

------------------------------------------
-----------------------------5--------5-5-
------7-5---------5-7------7---------7-7--
------7-5--------5-------5----------5-----
--0--------7-5-------7---------7----------
------------------------------------------

Estribillo Final
(2:09)
----------------------------
----------------------------
----------------------------   x 4 veces
----------------------------
-------0-----5-----7--------
----------------------------

Me pusiste los cuernos
me jalaste el rabo              x 2 veces
me llevaste al infierno
me has vuelto el mismo diablo


Solo Final
(2:31)

------------------------------------------
-----------------------------5--------5---
------7-5---------5-7------7---------7----
------7-5--------5-------5----------5-----
--0--------7-5-------7---------7----------
------------------------------------------

------------------------------------------
-----------------------------5--------5-5-
------7-5---------5-7------7---------7-7--
------7-5--------5-------5----------5-----
--0--------7-5-------7---------7----------
------------------------------------------


El mismo diablo
El mismo diablo
El mismo diablo
El mismo diablo


Tab por elweedo (

            
            
Suggest correction
Creating personal tab
Creating personal tab
You can edit any tab online and save it as your Personal.

You can edit, replace or remove any tab part or add personal notes – all changes will be seen only by you.

Personal tabs can be accessed anytime from any device, even offline.
Learn more »
Give kudos to tab author, rate the tab!
1 2 3 4 5
comments
print report bad tab
guest
Wanna post a correction for this tab? Suggest correction