Oops, an error
Loading. Please wait.

Macho Del Monte Suite tab

by Cienfue
40 views 1 this week
no commentswrite comment
1 2 3 4 5
3 more votes to show rating
add to favorites
×
Save as Personal and add changes to this tab that will be seen only by you. Learn more ›
×
You can save this tab as Personal to edit and correct it or add notes. All changes will be seen only by you. Learn more »
launch autoscroll
font size
0
reset
how to read this tab
guitar tuner
edit
Autoscroll
slow
fast
+/-
esc
set tempo
stop
La afinación es normal osea e/b/g/d/a/e

Intro:

E-----------------------------------------------------------
B--------------------------------------------10-------------
G---------------------9---------8-11-----11-----11-8--------
D------9------9--7-10---7-10--9------9-8-------------10-9-7- x4
A-7-10---7-10-----------------------------------------------
E-----------------------------------------------------------

Esto se hace terminando la cuarta vez?

E----------------------------------------
B----10--------------10------------------
G-------11-8------------11-8-------------
D------------10-9-7----------10-9-7-7----
A-------------------------------------6--
E----------------------------------------


Este es a extilo de bajo pero se toca con la guitarra:

E------------------------------------
B------------------------------------
G----------------------2-------------
D------------------1-4---4-1---------x4
A------2-0-0-3-0-2-----------3-2-0---
E--0-3-------------------------------

E-------------------------------
B-------------------------------
G--2-----------2----------------
D----4-1---------4-1------------
A--------3-2-0-------3-2-0-6----
E-------------------------------


Este es el punteo rapido:

E--------------------------------------------------------------------
B---8-----8-----10-8-7----10-8-7-8-7------------------10-------------
G-----9-----9------------------------9-8-----------------11-8--------
D-------9-----9---------9----------------9-7----7--9----------10-9-7-
A-7------------------------------------------7-----------------------
E--------------------------------------------------------------------

E--------------------------------------------------------------------
B---8-----8-----10-8-7----10-8-7-8-7------------------10-------------
G-----9-----9------------------------9-8-----------------11-8--------
D-------9-----9---------9----------------9-7----10--9----------10-9-7
A-7------------------------------------------7-----------------------
E--------------------------------------------------------------------

E--------------------------------------------------------------------
B---8-----8-----10-8-7----10-8-7-8-7------------------10-------------
G-----9-----9------------------------9-8-----------------11-8--------
D-------9-----9---------9----------------9-7----7--9----------10-9-7-
A-7------------------------------------------7-----------------------
E--------------------------------------------------------------------

E--------------------------------------------------------------------
B---8-----8-----10-8-7----10-8-7-8-7------------------10-------------
G-----9-----9------------------------9-8-----------------11-8--------
D-------9-----9---------9----------------9-7----10--9----------10-9-7
A-7------------------------------------------7-----------------------
E--------------------------------------------------------------------

Y se repite casi toda la cancion
Los acordes de fondo son
MIm LAm SI 
MIm DOm SI 

Y con eso acaba su clase de guitarra niños!!!
Si tienes algun reclamo haganlo saber a mckalister100@
y... Que viva la musica!!!!!!!!!!!!!!!!!
Suggest correction
Creating personal tab
Creating personal tab
You can edit any tab online and save it as your Personal.

You can edit, replace or remove any tab part or add personal notes – all changes will be seen only by you.

Personal tabs can be accessed anytime from any device, even offline.
Learn more »
Give kudos to tab author, rate the tab!
1 2 3 4 5
comments
print report bad tab
guest
Wanna post a correction for this tab? Suggest correction