Oops, an error
Loading. Please wait.

Celoso chords

22 views 1 this week
no commentswrite comment
1 2 3 4 5
3 more votes to show rating
add to favorites
×
Save as Personal and add changes to this tab that will be seen only by you. Learn more ›
×
You can save this tab as Personal to edit and correct it or add notes. All changes will be seen only by you. Learn more »
launch autoscroll
font size
0
reset
transpose
0
reset
simplify chords
display chords
guitar tuner
edit
Autoscroll
slow
fast
+/-
esc
set tempo
stop
Strumming
There is no strumming pattern for this song yet. and get +5 IQ
Intro: (B7 Am D)


Em               B7
 Fue mi primer plan
Em       B7  Em         B7
 me planté      en su jardin
Em          B7
 avioneta ciega
Em      B7    Am
 era nada    A E lado
          D
lo llamé, lo insulteé
C     B7
  y vi sus dientes
    D            C
a veinte kilometros fui a dar

Estribillo:
Em          C
bueno, creo que entendi
D          Em
no soy un bolsillo
       C            D
tengo que dejar de estar
B7      Em
 celoso del viento
[B7-Am-D]
E|-----------------------|-----------------------|
B|------------10-12^-12^-|----------10-----------|
G|-9-11-12-11------------|9-11-12-11--12-11-9----|
D|-----------------------|-----------------------|
A|-----------------------|-----------------------|
E|-----------------------|-----------------------|

E|-----------------------|-----------------------|
B|------------10-12^-12^-|13-12-10--10-----------|
G|-9-11-12-11------------|--------12--11-12-11-9-|
D|-----------------------|-----------------------|
A|-----------------------|-----------------------|
E|-----------------------|-----------------------|

Em                  B7
 filmaciones del campo
Em        B7                   Em
 un tractor ensaya algo en el suelo
                        B7
creo que yo haria lo mismo
Em        B7            Am
 lo miro y yo haria lo mismo
aqui vuelve
D      C
alli va siempre
  B7      D
llegando corazon
          C
donde nos deja este juego

Estribillo:
Em          C
bueno hasta aca llegue
D          Em
 no soy un bolsillo
      C              D
tengo que dejar de estar
B7      Em
 celoso del viento.

p/d: es un tema muy bueno para tocar en criolla, espero
les guste, cualquier duda, o correccion: cabezarg@

            
            
Suggest correction
Creating personal tab
Creating personal tab
You can edit any tab online and save it as your Personal.

You can edit, replace or remove any tab part or add personal notes – all changes will be seen only by you.

Personal tabs can be accessed anytime from any device, even offline.
Learn more »
Give kudos to tab author, rate the tab!
1 2 3 4 5
comments
print report bad tab
guest
Wanna post a correction for this tab? Suggest correction