Oops, an error
Loading. Please wait.

John Wayne tab

94 views 33 this week
no commentswrite comment
1 2 3 4 5
3 more votes to show rating
add to favorites
×
Save as Personal and add changes to this tab that will be seen only by you. Learn more ›
×
You can save this tab as Personal to edit and correct it or add notes. All changes will be seen only by you. Learn more »
launch autoscroll
font size
0
reset
how to read this tab
guitar tuner
edit
Autoscroll
slow
fast
+/-
esc
set tempo
stop
About this tab version
This version is an alternative to strumming chords and can be plucked very easily to the song, and chord shapes do not have to be complete as you are only plucking four strings throughout the entire song. ** tempo should be 65 bpm **. Was this info helpful? Yes No
[Intro]
   E            F#m        E           F#m
e|-----------------------------------------------------|
B|--0-----0-----2-----2-----0-----0-----2-----2--------|
G|--1-----1-----2-----2-----1-----1-----2-----2--------|
D|--2-----2-----4-----4-----2-----2-----4-----4--------|
A|-2-----------------------2---------------------------|
E|-------0-----2-----2-----------0-----2-----2---------|


[Verse 1]
He's got so much love for her
But he doesn't know what to do
Sitting in the car
Waiting outside of school
     E           F#          E            F# 
e|-----------------------------------------------------|
B|--0-----0-----2-----2-----0-----0-----2-----2--------|
G|--1-----1-----3-----3-----1-----1-----3-----3--------|
D|--2-----2-----4-----4-----2-----2-----4-----4--------|
A|-2-----------------------2---------------------------|
E|-------0-----2-----2-----------0-----2-----2---------|

[Pre-Chorus]
He's in for a heartbreak if it's all been blind faith
From my point of view
 E            F#m        E           F#m
e|-----------------------------------------------------|
B|--0-----0-----2-----2-----0-----0-----2-----2--------|
G|--1-----1-----2-----2-----1-----1-----2-----2--------|
D|--2-----2-----4-----4-----2-----2-----4-----4--------|
A|-----------------------------------------------------|
E|-0-----0-----2-----2-----0-----0-----2-----2---------|


[Chorus]
Baby, he's got to be crazy
Living like he's John Wayne
Always facing the world and chasing the girl
Baby, he's got to be crazy
   A        B       E       C#m
e|--------------------------------------------------------|
B|--1-------4-------0-------5-----------------------------|x3
G|--1-------4-------1-------6-----------------------------|
D|--1-------4-----2-2-------6-----------------------------|
A|-0-------2---------------4------------------------------|
E|--------------------------------------------------------|

    A       B       E      C#m      C#m
e|---------------------------------------------------------|
B|--1-------4-------0-------5--------5---------------------|
G|--1-------4-------1-------6--------6---------------------|
D|--1-------4-----2-2-------6--------6---------------------|
A|-0-------2---------------4--------4----------------------|
E|---------------------------------------------------------|

[Verse 2]
He's got so much in his heart
But he doesn't know what to do
All he wants is her
Lying inside his room
     E           F#          E            F# 
e|-----------------------------------------------------|
B|--0-----0-----2-----2-----0-----0-----2-----2--------|
G|--1-----1-----3-----3-----1-----1-----3-----3--------|
D|--2-----2-----4-----4-----2-----2-----4-----4--------|
A|-2-----------------------2---------------------------|
E|-------0-----2-----2-----------0-----2-----2---------|

[Pre-Chorus]
He's always feeling cheated, telling all his secrets
That I couldn't keep
 E            F#m        E           F#m
e|-----------------------------------------------------|
B|--0-----0-----2-----2-----0-----0-----2-----2--------|
G|--1-----1-----2-----2-----1-----1-----2-----2--------|
D|--2-----2-----4-----4-----2-----2-----4-----4--------|
A|-----------------------------------------------------|
E|-0-----0-----2-----2-----0-----0-----2-----2---------|

[Chorus]
Baby, he's got to be crazy
Living like he's John Wayne
Always facing the world and chasing the girl
Baby, he's got to be crazy
   A        B       E       C#m
e|--------------------------------------------------------|
B|--1-------4-------0-------5-----------------------------|x3
G|--1-------4-------1-------6-----------------------------|
D|--1-------4-----2-2-------6-----------------------------|
A|-0-------2---------------4------------------------------|
E|--------------------------------------------------------|

    A       B       E      C#m      C#m
e|---------------------------------------------------------|
B|--1-------4-------0-------5--------5---------------------|
G|--1-------4-------1-------6--------6---------------------|
D|--1-------4-----2-2-------6--------6---------------------|
A|-0-------2---------------4--------4----------------------|
E|---------------------------------------------------------|

[Interlude]
    A       B        E      
e|----------------------------0------------------------|
B|-------1--------4---------0---0----------------------|x3
G|-----1--------4---------1-------1--------------------|
D|---1--------4---------2-----------2-0----------------|
A|-0--------2------------------------------------------|
E|-----------------------------------------------------|

[Outro]
Baby, he's got to be crazy
Living like he's John Wayne
Always facing the world and chasing the girl
Baby, he's got to be crazy
   A        B       E       C#m
e|--------------------------------------------------------|
B|--1-------4-------0-------5-----------------------------|x3
G|--1-------4-------1-------6-----------------------------|
D|--1-------4-----2-2-------6-----------------------------|
A|-0-------2---------------4------------------------------|
E|--------------------------------------------------------|

    A       B       E      C#m      C#m
e|---------------------------------------------------------|
B|--1-------4-------0-------5--------5---------------------|
G|--1-------4-------1-------6--------6---------------------|
D|--1-------4-----2-2-------6--------6---------------------|
A|-0-------2---------------4--------4----------------------|
E|---------------------------------------------------------|

            
            
Suggest correction
Creating personal tab
Creating personal tab
You can edit any tab online and save it as your Personal.

You can edit, replace or remove any tab part or add personal notes – all changes will be seen only by you.

Personal tabs can be accessed anytime from any device, even offline.
Learn more »
Give kudos to tab author, rate the tab!
1 2 3 4 5
comments
print report bad tab
guest
You may want to rate the tab now too:
select rating
Wanna post a correction for this tab? Suggest correction