Oops, an error
Loading. Please wait.

Falsas Promesas tab

23 views 1 this week
no commentswrite comment
1 2 3 4 5
3 more votes to show rating
add to favorites
×
Save as Personal and add changes to this tab that will be seen only by you. Learn more ›
×
You can save this tab as Personal to edit and correct it or add notes. All changes will be seen only by you. Learn more »
launch autoscroll
font size
0
reset
how to read this tab
guitar tuner
edit
Autoscroll
slow
fast
+/-
esc
set tempo
stop
intro base A x2 D E

E---------------------------------------------
B---------------------------------------------
G--7-7-6-6-6-6-7-7-6-6-7-7-9-9-7-6-4-6-4-6-4--
D---------------------------------------------


A
quiero olvidarte por siempre
D                 E
pero extraño no verte

recuerdo promesas falsas
de tu risa arrancada
aquellas noches tirados
revolcados en el pasto
me parece tan reciente
aquellos momentos ardientes

base_ A x2 D E

E---------------------------------------------
B---------------------------------------------
G--7-7-6-6-6-6-7-7-6-6-7-7-9-9-7-6-4-6-4-6-4--
D---------------------------------------------
 ardientes!!!

eramos muy diferentes
ero alejados de la gente
olvidamos el pasado
totalmente embraigados

A
falsas promesas calientes
 D                    E
falsas promesas sonrientes    x2

F*            C*    B
el futuro no existio
F*            C*   B
y la noche escondio
F*            C*   A
la pasion de tu vida ( nose q dice)
B              E
tu vida y la mia

E--------------------------------------------
B--------------------------------------------
G-------6-6-6-4-6--6-4-6---7-7-7-6-4--7-6-4--
D--------------------------------------------

E----------------------------------
B----^-------^---------------------
G----7-------9---------------------- ESTIRA ESA CUERDA
D----------------------------------

E---------------------------------------
B-----8----7----------------------------   x2
G-------------9-7-----------------------
D-----------------9--7------------------

E---------------------------------
B---------------------------------
G---------------------------------
D---------------------------------

falsas promesas...
--------------------------------
si este no es el mejor tema de cigarro le pego en el palo...

rafa__bohemio77@

saludos

            
            
Suggest correction
Creating personal tab
Creating personal tab
You can edit any tab online and save it as your Personal.

You can edit, replace or remove any tab part or add personal notes – all changes will be seen only by you.

Personal tabs can be accessed anytime from any device, even offline.
Learn more »
Give kudos to tab author, rate the tab!
1 2 3 4 5
comments
print report bad tab
guest
Wanna post a correction for this tab? Suggest correction