Oops, an error
Loading. Please wait.

Soul Creation tab

version 3
version 3

Whole song

Interactive

by Cinder
347 views 1 this week
no commentswrite comment
1 2 3 4 5
2 more votes to show rating
add to favorites
×
Save as Personal and add changes to this tab that will be seen only by you. Learn more ›
×
You can save this tab as Personal to edit and correct it or add notes. All changes will be seen only by you. Learn more »
launch autoscroll
font size
0
reset
how to read this tab
guitar tuner
edit
Autoscroll
slow
fast
+/-
esc
set tempo
stop
Author
Song
Cinder - Soul Creation

Tabbed By
Egg Fondue


Tuning

Drop C# /  Drop Db
(C# G# C# F# A# D#)


Intro

|--------------------------------------------------------------|
|--------------------------------------------------------------|
|--------------------------------------------------------------|
|--------------------------------------------------------------|
|--------------------------------------------------------------|
|-0-0--0-4-3--0-0-0--0-4-3-------0-0--0-4-3--0-0-0--0-4-3/12\3-|


|--------------------------------------------------------------|
|--------------------------------------------------------------|
|--------------------------------------------------------------|
|-0-0--0-4-3--0-0-0--0-4-3--X-X--0-0--0-4-3--0-0-0--0-4-3--X-X-|
|-0-0--0-4-3--0-0-0--0-4-3--X-X--0-0--0-4-3--0-0-0--0-4-3--X-X-| x2
|-0-0--0-4-3--0-0-0--0-4-3--X-X--0-0--0-4-3--0-0-0--0-4-3--X-X-|

Verse

|--------------------------------|
|--------------------------------|
|--------------------------------|
|-0-0--0-0-0--0-0-0--0-0-0--3~---|
|-0-0--0-0-0--0-0-0--0-0-0--3~---| x2
|-0-0--0-0-0--0-0-0--0-0-0--3~---|

|--------------------------------------------------------------|
|--------------------------------------------------------------|
|--------------------------------------------------------------|
|-0-0--0-4-3--0-0-0--0-4-3--X-X--0-0--0-4-3--0-0-0--0-4-3--X-X-|
|-0-0--0-4-3--0-0-0--0-4-3--X-X--0-0--0-4-3--0-0-0--0-4-3--X-X-|
|-0-0--0-4-3--0-0-0--0-4-3--X-X--0-0--0-4-3--0-0-0--0-4-3--X-X-|


|--------------------------------|
|--------------------------------|
|--------------------------------|
|-0-0--0-0-0--0-0-0--0-0-0--3~---|
|-0-0--0-0-0--0-0-0--0-0-0--3~---| x2
|-0-0--0-0-0--0-0-0--0-0-0--3~---|


|--------------------------------------------------------------|
|--------------------------------------------------------------|
|--------------------------------------------------------------|
|-0-0--0-4-3--0-0-0--0-4-3--X-X--0-0--0-4-3--0-0-0--0-4-3--X-X-|
|-0-0--0-4-3--0-0-0--0-4-3--X-X--0-0--0-4-3--0-0-0--0-4-3--X-X-|
|-0-0--0-4-3--0-0-0--0-4-3--X-X--0-0--0-4-3--0-0-0--0-4-3--X-X-|

Chorus

|-----------------------------------------------------------|
|-----------------------------------------------------------|
|-----------------------------------------------------------|
|--0-0-0--0-0-0--0-0-0--0-0-0--0-3-3--3-3-3--3-5-5--5-5-5---|
|--0-0-0--0-0-0--0-0-0--0-0-0--0-3-3--3-3-3--3-5-5--5-5-5---|
|--0-0-0--0-0-0--0-0-0--0-0-0--0-3-3--3-3-3--3-5-5--5-5-5---|


|-----------------------------------------------------------|
|-----------------------------------------------------------|
|-----------------------------------------------------------|
|--5-0-0--0-0-0--0-0-0--0-0-0--0-5-5--5-3-5--5-2-3--5-2-3---|
|--5-0-0--0-0-0--0-0-0--0-0-0--0-5-5--5-3-5--5-2-3--5-2-3---|
|--5-0-0--0-0-0--0-0-0--0-0-0--0-5-5--5-3-5--5-2-3--5-2-3---|


|-----------------------------------------------------------|
|-----------------------------------------------------------|
|-----------------------------------------------------------|
|--0-0-0--0-0-0--0-0-0--0-0-0--0-3-3--3-3-3--3-5-5--5-5-5---|
|--0-0-0--0-0-0--0-0-0--0-0-0--0-3-3--3-3-3--3-5-5--5-5-5---|
|--0-0-0--0-0-0--0-0-0--0-0-0--0-3-3--3-3-3--3-5-5--5-5-5---|


|-----------------------------------------------------------|
|-----------------------------------------------------------|
|-----------------------------------------------------------|
|--5-0-0--0-0-0--0-0-0--0-0-0--0-5-5--5-3-5--5-2-3--5-2-3---|
|--5-0-0--0-0-0--0-0-0--0-0-0--0-5-5--5-3-5--5-2-3--5-2-3---|
|--5-0-0--0-0-0--0-0-0--0-0-0--0-5-5--5-3-5--5-2-3--5-2-3---|


|---------------------------------------|
|---------------------------------------|
|---------------------------------------|
|--0-3-3-3-3-3-3-3-3-2-2-2-2-2-2-2/12\2-|
|--0-3-3-3-3-3-3-3-3-2-2-2-2-2-2-2/12\2-|
|--0-3-3-3-3-3-3-3-3-2-2-2-2-2-2-2/12\2-|

Bridge

|--------------------------------------------------------------|
|--------------------------------------------------------------|
|--------------------------------------------------------------|
|-0-0--0-4-3--0-0-0--0-4-3--X-X--0-0--0-4-3--0-0-0--0-4-3--X-X-|
|-0-0--0-4-3--0-0-0--0-4-3--X-X--0-0--0-4-3--0-0-0--0-4-3--X-X-| x2
|-0-0--0-4-3--0-0-0--0-4-3--X-X--0-0--0-4-3--0-0-0--0-4-3--X-X-|

Verse

|--------------------------------|
|--------------------------------|
|--------------------------------|
|-0-0--0-0-0--0-0-0--0-0-0--3~---|
|-0-0--0-0-0--0-0-0--0-0-0--3~---| x2
|-0-0--0-0-0--0-0-0--0-0-0--3~---|

|--------------------------------------------------------------|
|--------------------------------------------------------------|
|--------------------------------------------------------------|
|-0-0--0-4-3--0-0-0--0-4-3--X-X--0-0--0-4-3--0-0-0--0-4-3--X-X-|
|-0-0--0-4-3--0-0-0--0-4-3--X-X--0-0--0-4-3--0-0-0--0-4-3--X-X-|
|-0-0--0-4-3--0-0-0--0-4-3--X-X--0-0--0-4-3--0-0-0--0-4-3--X-X-|

Chorus

|-----------------------------------------------------------|
|-----------------------------------------------------------|
|-----------------------------------------------------------|
|--0-0-0--0-0-0--0-0-0--0-0-0--0-3-3--3-3-3--3-5-5--5-5-5---|
|--0-0-0--0-0-0--0-0-0--0-0-0--0-3-3--3-3-3--3-5-5--5-5-5---|
|--0-0-0--0-0-0--0-0-0--0-0-0--0-3-3--3-3-3--3-5-5--5-5-5---|


|-----------------------------------------------------------|
|-----------------------------------------------------------|
|-----------------------------------------------------------|
|--5-0-0--0-0-0--0-0-0--0-0-0--0-5-5--5-3-5--5-2-3--5-2-3---|
|--5-0-0--0-0-0--0-0-0--0-0-0--0-5-5--5-3-5--5-2-3--5-2-3---|
|--5-0-0--0-0-0--0-0-0--0-0-0--0-5-5--5-3-5--5-2-3--5-2-3---|


|-----------------------------------------------------------|
|-----------------------------------------------------------|
|-----------------------------------------------------------|
|--0-0-0--0-0-0--0-0-0--0-0-0--0-3-3--3-3-3--3-5-5--5-5-5---|
|--0-0-0--0-0-0--0-0-0--0-0-0--0-3-3--3-3-3--3-5-5--5-5-5---|
|--0-0-0--0-0-0--0-0-0--0-0-0--0-3-3--3-3-3--3-5-5--5-5-5---|


|-----------------------------------------------------------|
|-----------------------------------------------------------|
|-----------------------------------------------------------|
|--5-0-0--0-0-0--0-0-0--0-0-0--0-5-5--5-3-5--5-2-3--5-2-3---|
|--5-0-0--0-0-0--0-0-0--0-0-0--0-5-5--5-3-5--5-2-3--5-2-3---|
|--5-0-0--0-0-0--0-0-0--0-0-0--0-5-5--5-3-5--5-2-3--5-2-3---|


|---------------------------------------|
|---------------------------------------|
|---------------------------------------|
|--0-3-3-3-3-3-3-3-3-2-2-2-2-2-2-2/12\2-|
|--0-3-3-3-3-3-3-3-3-2-2-2-2-2-2-2/12\2-|
|--0-3-3-3-3-3-3-3-3-2-2-2-2-2-2-2/12\2-|

Fill

|----------------------------------------------------|
|----------------------------------------------------|
|----------------------------------------------------|
|----------------------------------------------------|
|--------3-----------3-----------3-----------3---5---| x4
|--0-3-4---4-3-0-3-4---4-3-0-3-4---4-3-0-3-4---5-----|


|----------------------------------------------------------|
|----------------------------------------------------------|
|----------------------------------------------------------|
|----------------------------------------------------------|
|----------------------------------------------------------|
|-0-0--0-4-3--0-0-0--0-4-3-------0-0--0-4-3--0-0-0--0-4-3--|

Chorus (x2)

|-----------------------------------------------------------|
|-----------------------------------------------------------|
|-----------------------------------------------------------|
|--0-0-0--0-0-0--0-0-0--0-0-0--0-3-3--3-3-3--3-5-5--5-5-5---|
|--0-0-0--0-0-0--0-0-0--0-0-0--0-3-3--3-3-3--3-5-5--5-5-5---|
|--0-0-0--0-0-0--0-0-0--0-0-0--0-3-3--3-3-3--3-5-5--5-5-5---|


|-----------------------------------------------------------|
|-----------------------------------------------------------|
|-----------------------------------------------------------|
|--5-0-0--0-0-0--0-0-0--0-0-0--0-5-5--5-3-5--5-2-3--5-2-3---|
|--5-0-0--0-0-0--0-0-0--0-0-0--0-5-5--5-3-5--5-2-3--5-2-3---|
|--5-0-0--0-0-0--0-0-0--0-0-0--0-5-5--5-3-5--5-2-3--5-2-3---|


|-----------------------------------------------------------|
|-----------------------------------------------------------|
|-----------------------------------------------------------|
|--0-0-0--0-0-0--0-0-0--0-0-0--0-3-3--3-3-3--3-5-5--5-5-5---|
|--0-0-0--0-0-0--0-0-0--0-0-0--0-3-3--3-3-3--3-5-5--5-5-5---|
|--0-0-0--0-0-0--0-0-0--0-0-0--0-3-3--3-3-3--3-5-5--5-5-5---|


|-----------------------------------------------------------|
|-----------------------------------------------------------|
|-----------------------------------------------------------|
|--5-0-0--0-0-0--0-0-0--0-0-0--0-5-5--5-3-5--5-2-3--5-2-3---|
|--5-0-0--0-0-0--0-0-0--0-0-0--0-5-5--5-3-5--5-2-3--5-2-3---|
|--5-0-0--0-0-0--0-0-0--0-0-0--0-5-5--5-3-5--5-2-3--5-2-3---|


|-------------------------------------|
|-------------------------------------|
|-------------------------------------|
|--0-3-3-3-3-3-3-3-3-2-2-2-2-2-2-2-2--|
|--0-3-3-3-3-3-3-3-3-2-2-2-2-2-2-2-2--|
|--0-3-3-3-3-3-3-3-3-2-2-2-2-2-2-2-2--|


|-----------------------------------------------------------|
|-----------------------------------------------------------|
|-----------------------------------------------------------|
|--0-0-0--0-0-0--0-0-0--0-0-0--0-3-3--3-3-3--3-5-5--5-5-5---|
|--0-0-0--0-0-0--0-0-0--0-0-0--0-3-3--3-3-3--3-5-5--5-5-5---|
|--0-0-0--0-0-0--0-0-0--0-0-0--0-3-3--3-3-3--3-5-5--5-5-5---|


|-----------------------------------------------------------|
|-----------------------------------------------------------|
|-----------------------------------------------------------|
|--5-0-0--0-0-0--0-0-0--0-0-0--0-5-5--5-3-5--5-2-3--5-2-3---|
|--5-0-0--0-0-0--0-0-0--0-0-0--0-5-5--5-3-5--5-2-3--5-2-3---|
|--5-0-0--0-0-0--0-0-0--0-0-0--0-5-5--5-3-5--5-2-3--5-2-3---|


|-----------------------------------------------------------|
|-----------------------------------------------------------|
|-----------------------------------------------------------|
|--0-0-0--0-0-0--0-0-0--0-0-0--0-3-3--3-3-3--3-5-5--5-5-5---|
|--0-0-0--0-0-0--0-0-0--0-0-0--0-3-3--3-3-3--3-5-5--5-5-5---|
|--0-0-0--0-0-0--0-0-0--0-0-0--0-3-3--3-3-3--3-5-5--5-5-5---|


|-----------------------------------------------------------|
|-----------------------------------------------------------|
|-----------------------------------------------------------|
|--5-0-0--0-0-0--0-0-0--0-0-0--0-5-5--5-3-5--5-2-3--5-2-3---|
|--5-0-0--0-0-0--0-0-0--0-0-0--0-5-5--5-3-5--5-2-3--5-2-3---|
|--5-0-0--0-0-0--0-0-0--0-0-0--0-5-5--5-3-5--5-2-3--5-2-3---|


|----------------------------------------|
|----------------------------------------|
|----------------------------------------|
|--0-3-3-3-3-3-3-3-3-2-2-2-2-2-2-2/12\2--|
|--0-3-3-3-3-3-3-3-3-2-2-2-2-2-2-2/12\2--|
|--0-3-3-3-3-3-3-3-3-2-2-2-2-2-2-2/12\2--|

Outro

|--------------------------------------------------------------|
|--------------------------------------------------------------|
|--------------------------------------------------------------|
|-0-0--0-4-3--0-0-0--0-4-3--X-X--0-0--0-4-3--0-0-0--0-4-3--X-X-|
|-0-0--0-4-3--0-0-0--0-4-3--X-X--0-0--0-4-3--0-0-0--0-4-3--X-X-|
|-0-0--0-4-3--0-0-0--0-4-3--X-X--0-0--0-4-3--0-0-0--0-4-3--X-X-|


|--------------------------|
|--------------------------|
|--------------------------|
|-0-0--0-4-3--0-0-0--0-4-3-|
|-0-0--0-4-3--0-0-0--0-4-3-|
|-0-0--0-4-3--0-0-0--0-4-3-|

            
            
Suggest correction
Creating personal tab
Creating personal tab
You can edit any tab online and save it as your Personal.

You can edit, replace or remove any tab part or add personal notes – all changes will be seen only by you.

Personal tabs can be accessed anytime from any device, even offline.
Learn more »
Give kudos to tab author, rate the tab!
1 2 3 4 5
comments
print report bad tab
guest
You may want to rate the tab now too:
select rating
Wanna post a correction for this tab? Suggest correction