Oops, an error
Loading. Please wait.

Gypsy Road bass

version 1
version 1

Whole song

Interactive

6,579 views 18 this week
no commentswrite comment
1 2 3 4 5
x 9
add to favorites
×
Save as Personal and add changes to this tab that will be seen only by you. Learn more ›
×
You can save this tab as Personal to edit and correct it or add notes. All changes will be seen only by you. Learn more »
launch autoscroll
font size
0
reset
guitar tuner
backing track
0:00
0:00
edit
Autoscroll
slow
fast
+/-
esc
set tempo
stop
Author
Artist:Cinderella
Song:Gypsy Road
Album:Rocked, Wired & Bluesed
Bassist:Eric Brittingham
Tabber:Dev Fuld

I received a request for this song. It is an excellent song. I felt like putting 
the guitar Intro in too, just for shits and giggles.

Key:
* = let it ring
b = bend

Guitar Intro
G:6b--4-4--4-4--2-4-6-4--4-4|
D:--------------------------|
A:--------------------------|
E:--------------------------|

Intro
G:----------------------------------------------------------------|
D:----------------------------------------------------------------|
A:2-2-2-2-2-2-2-2-2-2-2-2-2-2-2-2-2-2-2-2-2-2-2-2-2-2-2-2-2-------|
E:----------------------------------------------------------0-3-4-|

Verse
G:-------------------------------|--------------------------------|
D:-------------------------------|--------------------------------|
A:-------------------------------|2-2-2-2-2-2-2-2-2-2-2-2-2-------|
E:5-5-5-5-5-5-5-5-5-5-5-5-5-5-5-5|--------------------------0-3-4-|

G:-------------------------------|-------------------------------|
D:-------------------------------|-------------------------------|
A:-------------------------------|2-2-2-2-2-2-2-2-2-2-2-2-2-2-2-2|
E:5-5-5-5-5-5-5-5-5-5-5-5-5-5-5-5|-------------------------------|

Pre-Chorus
G:---------------------------------------------------------------|
D:---------------------------------------------------------------|
A:5-5-5-5-5-5-5-5------------------------------------------------|
E:----------------5-5-5-5-5-5-5-5-0-0-0-0-0-0-0-0-0-0-0-0-0-0-0-0|

G:---------------------------------------------------------------|
D:---------------------------------------------------------------|
A:5-5-5-5-5-5-5-5------------------------------------------------|
E:----------------5-5-5-5-5-5-5-5-3-3-3-3-3-3-3-3-2-2-2-2-2-2-2-2|

Chorus
G:---------------------------------------------------------------|
D:---------------------------------------------------------------|
A:2-2-2-2-2-2-2-2------------------------------------------------|
E:----------------0-0-0-0-0-0-0-0-5-5-5-5-5-5-5-5-0-0-0-0-0-0-0-0|

G:---------------------------------------------------------------|
D:---------------------------------------------------------------|
A:2-2-2-2-2-2-2-2------------------------------------------------|
E:----------------0-0-0-0-0-0-0-0-5-5-5-5-5-5-5-5-0-0-0-0-0-0-0-0|

Intro

Verse

Pre-Chorus

Chorus

Pre-Bridge
G:---------------------------------------------------------------|
D:---------------------------------------------------------------|
A:2-2-2-2-2-2-2-2-2-2-2-2-2-2-2-2-2-2-2-2-2-2-2-2-2-2-2-2-2-2-2-2|
E:---------------------------------------------------------------|

Bridge
G:---------------------------------------------------------------|
D:---------------------------------------------------------------|
A:4-4-4-4-4-4-4-4-----------------7-7-7-7-7-7-7-7----------------|
E:----------------5-5-5-5-5-5-5-5-----------------7-7-7-7-7-7-7-7|

G:---------------------------------------------------------------|
D:---------------------------------------------------------------|
A:4-4-4-4-4-4-4-4------------------------------------------------|
E:----------------5-5-5-5-5-5-5-5-7-7-7-7-7-7-7-7-7-7-7-7-7-7-7-7|

Solo
G:--------------------------------------------------------|
D:--------------------------------------------------------|
A:5-5-5-5-5-5-5-5---------------------------------5-7--5-7|
E:----------------5-5-5-5-5-5-5-5-0-0-0-0-0-0-0-0---------|

G:---------------------------------------------------------------|
D:---------------------------------------------------------------|
A:5-5-5-5-5-5-5-5------------------------------------------------|
E:----------------5-5-5-5-5-5-5-5-3-3-3-3-3-3-3-3-2-2-2-2-2-2-2-2|

Bridge 2
G:--------------|--------------|--------------|--------------|
D:--------------|--------------|--------------|--------------|
A:2*------------|2*------------|2*------------|2*------------|
E:----0*--5*--0*|----0*--5*--0*|----0*--5*--0*|----0*--5*--0*|

Chorus through End

That's it. Very awesome song. I guarantee this tab. I've already put it in 
order for you. Any questions or comments, e-mail me at rocklvson@yahoo.com

            
            
Suggest correction
Creating personal tab
Creating personal tab
You can edit any tab online and save it as your Personal.

You can edit, replace or remove any tab part or add personal notes – all changes will be seen only by you.

Personal tabs can be accessed anytime from any device, even offline.
Learn more »
comments
print report bad tab
guest
You may want to rate the tab now too:
select rating
Wanna post a correction for this tab? Suggest correction