Oops, an error
Loading. Please wait.

Somebody Save Me Tab

version 2
version 2

Whole song

Interactive

21,905 views 66 this week
5 commentsread comments
1 2 3 4 5
x 12
add to favorites
launch autoscroll
font size
0
reset
how to read this tab
guitar tuner
Autoscroll
slow
fast
+/-
esc
set tempo
stop
Help us to improve Ultimate-Guitar.com Take our survey!
×
Difficulty
novice
[riff 1]
e|-------------------------------------------------------------------------|
B|-------------------------------------------------------------------------|
G|----2-----2-----2---5-----5-----5---7-----7-----7---5\4-2-7\6-5-2--------|
D|----2-----2-----2---3-----3-----3---7-----7-----7---5\4-2-7\6-5-2--------|
A|----0-----0-----0--------------------------------------------------------|
E|------x-x---x-x---x---x-x---x-x---x---x-x---x-x---x----------------------|

e|-----------------------------------------------------------------------|
B|-----------------------------------------------------------------------|
G|-----------------------------------------------------------------------|
D|-----------------------------------------------------------------------|
A|-----3-2-0-5-3-0-3-2---------------------------------------------------|
E|-----------------------------------------------------------------------|

e|-----------------------------------------------------------------------|
B|----5----8-----6----10----8-----12----10-------------------------------|
G|----7B---10B---8B---12B---10B---14B---12B------------------------------|
D|-----------------------------------------------------------------------|
A|--------------------------------------------3-2-0-5-3-0-3-2------------|
E|-----------------------------------------------------------------------|

e|---2-------------------------------------------------------------------|
B|---3-------------------------------------------------------------------|
G|---2---2----5-----5-----5---7------------------------------------------|
D|-------2----3-----3-----3---7------------------------------------------|
A|-------0---------------------------------------------------------------|
E|--------------x-x---x-x---x--------------------------------------------|

e|-----------------------------------------------------------------------|
B|----5--4--5--4--3-3-3--------------------------------------------------|
G|----4--4--4--4--2-2-2----------------x2--------------------------------|
D|----4--4--4--4---------------------------------------------------------|
A|----2--2--2--2-------0-0-0-0-0-0-0-0-----------------------------------|
E|-----------------------------------------------------------------------|

e|-----------------------------------------------------------------------|
B|----7-10---7-10---7-10B-10B-10B-10B-----7-10---7-10---7-15B-15B-15B-15B|
G|--9------9------9---------------------9------9------9------------------|
D|-----------------------------------------------------------------------|
A|-----------------------------------------------------------------------|
E|-----------------------------------------------------------------------|

e|--12p15----12p15----12p15----12p15----15B-15B-15B-15B------------------|
B|--------15-------15-------15-------15----------------------------------|
G|-----------------------------------------------------------------------|
D|-----------------------------------------------------------------------|
A|-----------------------------------------------------------------------|
E|-----------------------------------------------------------------------|

e|--------------------------------------------------------------------------|
B|--------------------------------------------------------------------------|
G|---2--2--2----------------------------------------------------------------|
D|---2--2--2----------------------------------------------------------------|
A|---0--0--0----------------------------------------------------------------|
E|--------------------------------------------------------------------------|


************************************

| \  Slide down
| x  Dead note
| p  Pull-off

************************************
Suggest correction
comments
print report bad tab
5 comments total. Showing first comments.
0 reply
shredder_666 341 Dec 11, 2006 09:59 AM

there are a few mistakes but all in all its not too bad

0 reply
Led4evermore 10 Mar 03, 2007 01:47 PM

Awsome Song Awsome tab!!!!!!!!!! nice job

0 reply
semperxfix10 79 Jul 30, 2007 11:47 PM

Great Tab...you should really finish the solo though!

guest
You may want to rate the tab now too:
select rating
Wanna post a correction for this tab? Suggest correction