Oops, an error
Loading. Please wait.

Blue Sky Noise album bass

5,001 views 12 this week
1 commentread comment
1 2 3 4 5
x 8
add to favorites
×
Save as Personal and add changes to this tab that will be seen only by you. Learn more ›
×
You can save this tab as Personal to edit and correct it or add notes. All changes will be seen only by you. Learn more »
launch autoscroll
font size
0
reset
guitar tuner
edit
Autoscroll
slow
fast
+/-
esc
set tempo
stop
Author
-------------------------------------------------------------------------------
		  Blue Sky Noise - Circa Survive
-------------------------------------------------------------------------------

 Tabbed by:dvanwyk
 Email:dustinvanwyk@yahoo.com

 Tuning:Drop D

 1.Strange Terrain
 2.Get Out
 3.Glass Arrows
 4.I Felt Free
 5.Imaginary Enemy
 6.Through the Desert Alone
 7.Frozen Creek
 8.Fever Dreams
 9.Spirit of The Stairwell
 10.The Longest Mile
 11.Compendium
 12.Dyed in the Wool


===============================================================================


-------------------------------------------------------------------------------
 1.		     Strange Terrain 
-------------------------------------------------------------------------------


 Intro (0.24)
G|---------------------------------------------------------------|
D|--------------------------------------3/666-4/888888888888-----|
A|----------444-----------4-6-999999999--------------------------|
D|888888888-----888888888----------------------------------------|

G|-------------------------------------------------|
D|--------------------------------------3/666--4---|
A|----------444-----------4-6-999999999------------|
D|888888888-----888888888--------------------------|

G|---------------------------------------------------------------|
D|--------------------------------------3/666-4/888888888888-----|
A|----------444-----------4-6-999999999--------------------------|
D|888888888-----888888888----------------------------------------|

 Pre-Chorus 
G|-----------------------------------------------------------|
D|-----------------------------------------------------------|
A|6~---5~----4~----2~----6~----------4~----2~----------------|
D|-----------------------------4~---------------8888888888---|

 Chorus x3
G|-------------------------------|
D|-------------------------------|
A|-------------------666666------|
D|5~----4~----888888-------------|

G|-------------------------------|
D|-------------------------------|
A|-------------------------------|
D|5-5-5-5-5-5-4-4-4-4-4-4--------|

 Pause

 Verse (2.03)
G|---------------------------------------|
D|---------------3/666-4/888888888888----|
A|4-6-999999999--------------------------|
D|---------------------------------------|


G|----------666----------------------------------------------------|
D|888888888-----8888888888----------------3/666-4/-888888888888----|
A|--------------------------4-6-999999999--------------------------|
D|-----------------------------------------------------------------|

G|--------------------------------------|
D|--------------------------------------|
A|--------------------------------4-6---|
D|8/--8/--8/-11111111--8/--8/--8/-------|

 Pre-Chorus
G|--------------------------------------------------------------|
D|--------------------------------------------------------------|
A|666666-555555-444444-222222-666666--------444444-2222222222---|
D|-----------------------------------444444---------------------|

G|-------------------------------------------------------------------------------------|
D|-------------------------------------------------------------------------------------|
A|666-6/18/6--555-5/17/5--4444/16/4-222222--666-6/18/6--------------444-4/16/4-222222--|
D|------------------------------------------------------4444-2/16/4---------------------|

G|---------------|
D|---------------|
A|---------------|
D|8888888888-----|

 Chorus x3
G|-------------------------------|
D|-------------------------------|
A|-------------------666666------|
D|5~----4~----888888-------------|

G|----------------------|
D|----------------------|
A|----------------------|
D|5-5-5-5-5-5-4/--------|

 
 Outro x4
G|--------------------|
D|--------------------|
A|--------------------|
D|8/--8/--8/-11111111-|


===============================================================================

-------------------------------------------------------------------------------
 2.		            Get Out
-------------------------------------------------------------------------------
 
 Intro 
G|--------------------------------|
D|--------------------------------|
A|--------------------------------|
D|7/--------7/--------5555-3333---|

 Verse 
G|--------------------------|
D|--------------------------|
A|--------------------------|
D|7/-7-77/-7-77/-5555-3333--|

G|---------------------------------------|
D|---------------------------------------|
A|------------------33333333-------------|
D|77777777-99999999----------33333333----|

 Chorus
G|--------------------------------------------------------------------|
D|--------------------------------------------------------------------|
A|------------------------------------33333333-55555555---------------|
D|77777777-22222222-77777777-22222222-------------------777777777-----|

G|-----------------------------------|
D|-----------------------------------|
A|-----------------------------------|
D|2-2-2-2-2-2-2-2-2-2-2-2-2-2-2-2----|

 
 Solo x2
G|-------------------------|
D|-------------------------|
A|-------------------------|
D|7/-7-77/-77/-5555-33333--|

 Verse
G|----------------------|
D|----------------------|
A|----------------------|
D|7/--------5555-3333---|

G|-----------|
D|-----------|
A|-----------|
D|7/---------|

G|--------------------------|
D|--------------------------|
A|--------------------------|
D|7/-7-77/-7-77/-5555-3333--|

G|---------------------------------------|
D|---------------------------------------|
A|------------------33333333-------------|
D|77777777-99999999----------33333333----|


G|--------------|
D|--------------|
A|--------------|
D|33333333------|

 Chorus
G|--------------------------------------------------------------------|
D|--------------------------------------------------------------------|
A|------------------------------------33333333-55555555---------------|
D|77777777-22222222-77777777-22222222-------------------777777777-----|

G|-----------------------------------|
D|-----------------------------------|
A|-----------------------------------|
D|2-2-2-2-2-2-2-2-2-2-2-2-2-2-2-2----|

G|--------------------------------------------------|
D|--------------------------------------------------|
A|--------------------------------------------------|
D|14-14-14-14-14-14-14-14-14-14-14-14-14-14-14-14---|

 Bridge x4
G|-------------------------------------|
D|-------------------------------------|
A|-------------------------------------|
D|3333333333333333-7777777777777777----|

G|------------------------------|
D|------------------------------|
A|333333333-55555555------------|
D|-------------------77777777---|

G|-----------------------------------|
D|-----------------------------------|
A|-----------------------------------|
D|2-2-2-2-2-2-2-2-2-2-2-2-2-2-2-2----|

G|-------|
D|-------|
A|-------|
D|14~----|

 x2
G|------------------------------|
D|------------------------------|
A|------------------------------|
D|7/-7-7-77/-7-7-77/-5555-3333--|

 x2
G|--------------------------|
D|--------------------------|
A|--------------------------|
D|7/-7-77/-7-77/-5555-3333--|


G|----------|
D|----------|
A|----------|
D|3~--------|

===============================================================================

-------------------------------------------------------------------------------
 3.		            Glass Arrows
-------------------------------------------------------------------------------



 Intro (0.28)
G|-------------------|
D|33-----------------|
A|-------------------|
D|---3---------------|

 (0.31 , 0.35 , 0.39)
G|------------------|
D|------------------|
A|88/---------------|
D|----3-------------|

G|-------------------------|
D|-------------------------|
A|---------66666666--------|
D|66666666-----------------|

 Verse
G|---------------------------------------------------------|
D|---------------------------------------------------------|
A|44444444--------------------888888888888-666666666666----|
D|---------66666-888888888888------------------------------|

G|---------------------------------------------------------|
D|---------------------------------------------------------|
A|----------444444444444-66666666666666666666666666666-----|
D|888888888------------------------------------------------|

 x2
G|---------------------|
D|---------------------|
A|6h88-6h88-6h8-6h8----|
D|---------------------|

 Chorus 
G|--------------------------------------------------|
D|--------------------------------------------------|
A|----------------------44444444444444444444444444--|
D|3333333-111111111111------------------------------|

G|--------------------------------------------------|
D|--------------------------------------------------|
A|----------------------111111111111111111111111111-|
D|3333333-111111111111------------------------------|

 Post Chorus x2
G|-------------------------------|
D|----6--------------------------|
A|888---88-----------------------|
D|---------6-6-88888888888-------|

G|--------------------------------------------------------|
D|--------------------------------------------------------|
A|888888888888-666666666666-------------------------------|
D|--------------------------888888888888-66666666666------|

G|--------------------------------------------------------|
D|--------------------------------------6/888888888888888-|
A|88888888888-999999999999-666666666666-------------------|
D|--------------------------------------------------------|


 x2
G|---------------------|
D|---------------------|
A|6h88-6h88-6h8-6h8----|
D|---------------------|

 Pause
 
 Chorus
G|--------------------------------------------------|
D|--------------------------------------------------|
A|----------------------44444444444444444444444444--|
D|3333333-111111111111------------------------------|

G|--------------------------------------------------|
D|--------------------------------------------------|
A|----------------------111111111111111111-66666666-|
D|3333333-111111111111------------------------------|

 Pause

 (2.38)
G|---------------------------|
D|---------------------------|
A|------6666666666666666-----|
D|6--6-----------------------|

G|---------------------------------------------------------|
D|---------------------------------------------------------|
A|------------------44444444444444444----------66666666----|
D|88888888888888888-------------------88888888-------------|

 
 Chorus x2
G|--------------------------------------------------|
D|--------------------------------------------------|
A|----------------------44444444444444444444444444--|
D|3333333-111111111111------------------------------|

G|--------------------------------------------------|
D|--------------------------------------------------|
A|----------------------111111111111111111111111111-|
D|3333333-111111111111------------------------------|

 x4
G|---------------------|
D|---------------------|
A|6h88-6h88-6h8-6h8----|
D|---------------------|

===============================================================================

-------------------------------------------------------------------------------
 4.		              I Felt Free
-------------------------------------------------------------------------------


 Intro x2
G|-------------------------------------|
D|---------66666666-4444444444444444---|
A|77777777-----------------------------|
D|-------------------------------------|

 Interlude
G|--------------------------|
D|--------------------------|
A|--------------------------|
D|6-6--6-6--6-6--6-6--------|

 Verse 
G|------------------------------------------|
D|------------------------------------------|
A|--------------------8-8--4-4--------------|
D|6-6--6-6--6-6--6-6------------6-6--6-6----|

G|-----------------------------------------|
D|-----------------------------------------|
A|--------------------8-8--4-4-------------|
D|6-6--6-6--6-6--6-6------------6-6--6-----|

 Chorus
G|-------------------------------------|
D|---------66666666-4444444444444444---|
A|77777777-----------------------------|
D|-------------------------------------|

G|--------------------------------------|
D|---------66666666-4444444444444-9-8---|
A|77777777----------------------------9-|
D|--------------------------------------|

G|-------------------------------------|
D|---------66666666-4444444444444444---|
A|77777777-----------------------------|
D|-------------------------------------|

 Interlude
G|--------------------------|
D|--------------------------|
A|--------------------------|
D|6-6--6-6--6-6--6-6--------|

 Verse

 Chorus

G|-----------------|
D|-----------------|
A|-----------------|
D|6-6--6-6---------|

 Bridge x2
G|-------------------------------------|
D|-------------------------------------|
A|77777777-----------------------------|
D|---------66666666-4444444444444444---|

G|-----------------------------------------------------------------------|
D|-----------------------------------------------------------------------|
A|-----------------------------------------------------------------------|
D|2222222222222222-4444444444444444-2222222222222222-66666666-44444444---|

G|----------------------------------------------------------------------------------|
D|11111111111111111-99999999-88888888-99999999--------------------------------------|
A|---------------------------------------------------------------------/999999999---|
D|---------------------------------------------44444444444444444444444--------------|

 x2
G|--------------------|
D|------6~---4~-------|
A|7~------------------|
D|--------------------|

 Chorus
G|-------------------------------------|
D|---------66666666-4444444444444444---|
A|77777777-----------------------------|
D|-------------------------------------|
G|-------------------------------------|
D|---------66666666-4444444444444444---|
A|77777777-----------------------------|
D|-------------------------------------|

G|--------------------------------------|
D|---------66666666-4444444444444-9-8---|
A|77777777----------------------------9-|
D|--------------------------------------|

G|-----------------------|
D|---------66666666-4~---|
A|77777777---------------|
D|-----------------------|

===============================================================================

-------------------------------------------------------------------------------
 5.	                     Imaginary Enemy 
-------------------------------------------------------------------------------
 
 Intro x4
G|---------------|
D|---------------|
A|---------------|
D|2---0-2--------|

 Verse x8
G|---------------|
D|---------------|
A|---------------|
D|2---0-2--------|

 Pre-Chorus
G|-----------------------------------------------------------------------------------|
D|-----------------------------------------------------------------------------------|
A|-----------333333-1-3-777777-5-7-55555555-3333333333333333-555555555555------------|
D|777777-5-7--------------------------------------------------------------00000000---|

 Chorus x2
G|------------------------------------------------------------------------|
D|------------------------------------------------------------------------|
A|---------------------------------------------------3333333333333333-----|
D|2222222222222222-0000000000000000-7777777777777777----------------------|

 Verse x12
G|--------------|
D|--------------|
A|--------------|
D|2--2-2--0-2---|

 Pre-Chorus

 Chorus x2

 Post-Chorus
G|--------------------------------|
D|--------------------------------|
A|333333333-/1515151515151515-----|
D|--------------------------------|

 Bridge x4
G|-------------------------------------------|
D|-------------------------------------------|
A|-------------------------------------------|
D|0-0--0/12--00-0/12--2-2--2/14--22-2/14-----|

 Pause 

 Solo x2(3.09)
G|------------------------------------------------------------------------|
D|------------------------------------------------------------------------|
A|---------------------------------------------------3333333333333333-----|
D|2222222222222222-0000000000000000-7777777777777777----------------------|

 Chorus x2

 Post-Chorus
G|---------------------------|
D|---------------------------|
A|33333333333333333----------|
D|---------------------------|

G|--------------|
D|--------------|
A|--------------|
D|2~------------|

===============================================================================

-------------------------------------------------------------------------------
 6.		     Through the Desert Alone
-------------------------------------------------------------------------------


 Intro x2
G|--------------------------------------------------|
D|--------------------------------------------------|
A|-----------------3h55555555555555555555-/888------|
D|5h777777777777777---------------------------------|

 Pause

 Verse x2
G|-----------------------------------------|
D|-----------------------------------------|
A|----------------------------------3------|
D|7-7777-5h7-77-5h7-77-7-7-7777-5h7---7-5--|

G|-------------------------------------------|
D|-------------------------------------------|
A|-----------------------------3-55----------|
D|3-3333-2h3-33-2h3-33-5-55-55---------------|

 
 Chorus
G|---------------------------------------------|
D|---------------------------------------------|
A|3-3-3-3~--5~---------------------------------|
D|--------------777777-555555-333333333333-----|

G|-----------------------------------------|
D|-----------------------------------------|
A|----------------------------------3------|
D|7-7777-5h7-77-5h7-77-7-7-7777-5h7---7-5--|


 Verse x1

G|---------------------------------------------------------------------------|
D|---------------------------------------------------------------------------|
A|---------------------------5-5-5-5~-8-8-8-8~-5-5-5-5~----------------------|
D|3-3-3-3~-7-7-7-7~-5-5-5-5~----------------------------7-7-7-7~-5-5-5-5~----|

G|-----------------------------------------|
D|-----------------------------------------|
A|----------------------------------3------|
D|7-7777-5h7-77-5h7-77-7-7-7777-5h7---7-5--|

G|-------------------------------------|
D|-------------------------------------|
A|-------------------------------------|
D|3-3333-2h3-33-2h3-33-5-55-55~--------|


 Bridge x1
G|----------------------------|
D|----------------------------|
A|----------------------------|
D|777777777777777777777777----|

 x2
G|-----------------------------------------------------|
D|-----------------------------------------------------|
A|-----------------------------------------------------|
D|777777777777777777777777-333333333333-55555555555----|

G|----------------------------|
D|----------------------------|
A|----------------------------|
D|777777777777777777777777----|


G|-----------------------------------------|
D|-----------------------------------------|
A|-----------------------------------------|
D|77-5h7--77-5h7--77-5h7-77-5/-17171717----|


 Chorus x2

 Outro
G|-------------------------------|
D|-------------------------------|
A|-------------------------------|
D|7~----5~----3~-----------------|


===============================================================================

-------------------------------------------------------------------------------
 7.		            Frozen Creek
-------------------------------------------------------------------------------


 Chorus x4 (1.12)
G|-------------------------------------|
D|------------4~--6666666666666666-----|
A|4~--6~--7~---------------------------|
D|-------------------------------------|

 Post-Chorus
G|---------------------|
D|66666666666666-------|
A|---------------------|
D|---------------------|

 x2
G|----------------------------------------------------------------------------|
D|----------------------------------------------------------------------------|
A|-------------4444-/9------------------7777777777777777-777777777777-/99999--|
D|666666666666---------9999999999999999---------------------------------------|

 
 Verse x2
G|-------------------------------------------|
D|-------------------------------------------|
A|------4~--9~--------7~----7~---/99---------|
D|6~------------9~---------------------------|

 Pause

 Chorus x4 (2.49)


 Bridge
G|----------------------|
D|----------------------|
A|66666666666666666-----|
D|----------------------|

G|----------------------------------------------------------------------|
D|----------------------------------6666666666666666666666666666-\444---|
A|777777777777777777777777777-/9999-------------------------------------|
D|----------------------------------------------------------------------|

G|----------------------------------------------|
D|----------------------------------6~----------|
A|777777777777777777777777777-/9999-------------|
D|----------------------------------------------|

G|-------------------|
D|-------------------|
A|-------------------|
D|6-6-6-6-6-6-6-6----|


  Chorus x4

G|-------------------|
D|-------------------|
A|-------------------|
D|6-6-6-6-6-6-6/-----|


===============================================================================

-------------------------------------------------------------------------------
 8.		               Fever Dreams
-------------------------------------------------------------------------------

 

 Intro x2 (0.43)
G|--------------------------------|
D|--------------------------------|
A|---------------3~---------------|
D|7~--5~--2~---------2~-----------|

  
 Verse x2
G|---------------------------------------------------------------------|
D|7-7-7-7-7-7-7-7-7-7-7--7--5-5-/1212----------------------------------|
A|-7---7---7---7---7---7-----7--------3-3-3-3-3-3-3-3-3-3-3-3-5555-----|
D|-------------------------------------5---5---5---5---5---5-----------|

G|--------------|
D|--------------|
A|--------------|
D|7~------------|

 Bridge x10
G|-------------------------------------------------------------|
D|777777-5555555-----------------------------------------------|
A|---------------7777777777777-55555555555555-33333333333333---|
D|-------------------------------------------------------------|

G|--------------------------------|
D|7~------------------------------|
A|------------3~------------------|
D|------2~----------0~------------|

G|--------------------------------|
D|--------------------------------|
A|---------------3~---------------|
D|7~--5~--2~---------0~-----------|

 
G|---------------------------------------------------------|
D|---------------------------------------------------------|
A|--------------------------------------333333333333333----|
D|777-555-222222222222-0000000000000000--------------------|

G|---------------------------------------------------------|
D|---------------------------------------------------------|
A|--------------------------------------33333333333-/5555--|
D|777-555-222222222222-0000000000000000--------------------|

 x2
G|-----------------------------------------------|
D|-----------------------------------------------|
A|---------------------3333333333-5555555555-----|
D|777-555-222222222222---------------------------|

G|---------------------------------------------------------|
D|---------------------------------------------------------|
A|--------------------------------------333333333333333----|
D|777-555-222222222222-0000000000000000--------------------|

G|---------------------------------------------------------|
D|---------------------------------------------------------|
A|--------------------------------------33333333333-/5555--|
D|777-555-222222222222-0000000000000000--------------------|

 x2
G|-----------------------------------------------|
D|-----------------------------------------------|
A|---------------------3333333333-5555555555-----|
D|777-555-222222222222---------------------------|


G|-------------------|
D|-------------------|
A|-------------------|
D|7~-----------------|

===============================================================================

-------------------------------------------------------------------------------
 9.		         Spirit of The Stairwell
-------------------------------------------------------------------------------


 (No Bass)

===============================================================================

-------------------------------------------------------------------------------
 10.		         The Longest Mile
-------------------------------------------------------------------------------

 Intro
G|------------------------------|
D|-------6~---------4---22~-----|
A|---4h6--------2h4---4---------|
D|6~---------4~-----------------|

G|--------------------------------|
D|-------6~---------4---22~-------|
A|---4h6--------2h4---4-----2-4---|
D|6~---------4~-------------------|

 Verse
G|------------------------------|
D|-------6~---------4---22~-----|
A|---4h6--------2h4---4---------|
D|6~---------4~-----------------|


G|---------------------------------|
D|-------6~---------4---22~--------|
A|---4h6--------2h4---4-----2h4----|
D|6~---------4~--------------------|

G|------------------------------|
D|-------6~---------4---22~-----|
A|---4h6--------2h4---4---------|
D|6~---------4~-----------------|

G|------------------------------|
D|-------6~-----2h4-2h4-2-------|
A|---4h6------------------2/4~--|
D|6~---------4~-----------------|


 Pre-Chorus
G|-------------------------------|
D|------666666-------44---2------|
A|--4h6----------2h4----2---2/4--|
D|6------------4-----------------|

G|----------------------------------------|
D|----------------------------------------|
A|-----------------------7~---------------|
D|4~---5~---6~----/9~----------5~---6~----|


 Chorus x2
G|---------------------------------------|
D|---------------------------------------|
A|---------------------------------------|
D|22222222-44444444-11111111-66666666----|

G|---------------------------------------|
D|---------------------------444444444---|
A|44444444-66666666-77777777-------------|
D|---------------------------------------|

G|-----------------------------|
D|-----------------------------|
A|44444444-66666666-77777777---|
D|-----------------------------|

G|----------------------|
D|----------------------|
A|----------------------|
D|4-4-4-4-555555555-----|

 Pause

G|--------------------------------|
D|-------6~---------4---22~-------|
A|---4h6--------2h4---4-----2-4---|
D|6~---------4~-------------------|

 Verse

 Pre-Chorus

 Chorus

 Bridge
G|-----------------------------------------------------------------------|
D|-----------------------------------------------------------------------|
A|-----------------------------------------------------------------------|
D|6666666666666666-4444444444444444-66666666666666666-44444444444444444--|

G|---------------------------------------------------------|
D|---------------------------------------------------------|
A|---------------------------------------------------------|
D|2222222222222222-4444444444444444-22222222222222222-4~---|

G|--------------------------------------------------------------------------|
D|4/66666-4/66666-2/44444-2/44444----4/66666-4/66666-2/44444-2/4444-----4---|
A|--------------------------------4---------------------------------2h4-----|
D|--------------------------------------------------------------------------|

G|-----------------------------------------------------------------------------|
D|-----------------------------------------------------------------------------|
A|---------------------------22222222-/77777777-66666666-44444444--------------|
D|44444444-55555555-66666666--------------------------------------666666666----|

G|---------------------------------------------------------------------------|
D|---------------------------------------------------------------------------|
A|---------------------------22222222----------------------------------------|
D|44444444-55555555-66666666-----------2222222222222222-1~----4~-------------|

 Pause

G|------------------|
D|------------------|
A|------------------|
D|666666666---------|

 Chorus
G|---------------------------------------|
D|---------------------------------------|
A|---------------------------------------|
D|22222222-44444444-11111111-66666666----|

G|---------------------------------------|
D|---------------------------444444444---|
A|44444444-66666666-77777777-------------|
D|---------------------------------------|

G|-----------------------------|
D|-----------------------------|
A|44444444-66666666-77777777---|
D|-----------------------------|

G|----------------------|
D|----------------------|
A|----------------------|
D|4-4-4-4-555555555-----|

G|-------|
D|-------|
A|-------|
D|6/-----|

===============================================================================

-------------------------------------------------------------------------------
 11.		                Compendium
-------------------------------------------------------------------------------


 x2 (0.24)
G|-------------------------------------------------------|
D|-----22--------222---4---------------------------------|
A|22-4----2-4--------4--------0~--0-0--------------------|
D|-----------------------4-------------4~--4-4-----------|

 Pause

 x3 (0.58)
G|--------------------------------------------------------|
D|--------------------------------------------------------|
A|222222222222-444444444444-000000000000------------------|
D|---------------------------------------444444444444-----|

G|----------------------------------------------|
D|----------------------------------------------|
A|222222222222-444444444444-000000000000--------|
D|---------------------------------------4~-----|


===============================================================================

-------------------------------------------------------------------------------
 12.		         Dyed in the Wool
-------------------------------------------------------------------------------

 
 Intro
G|---------------------------------------------------------------------------|
D|---------------------------------------------------------------------------|
A|-------------0000--------------0000--------------0000--------------0000----|
D|222222222222------222222222222------222222222222------222222222222---------|

G|---------------------------------------------------------------------------|
D|---------------------------------------------------------------------------|
A|444444444444-0000-444444444444-0000---------------0000---------------0000--|
D|------------------------------------2222222222222------2222222222222-------|

G|-----------------------------------------|
D|-----------------------------------------|
A|444444444444-0000-444444444444-4~----0~--|
D|-----------------------------------------|


 Verse x2
G|---------------------------------------------------------------------------|
D|---------------------------------------------------------------------------|
A|-------------0000--------------0000-4-444-4-4444-0000-4-444-4-4444-0000----|
D|2-222-2-2222------2-222-2-2222---------------------------------------------|

 Pause

 Chorus 
G|-----------------------------------------|
D|-----------------------------------------|
A|444444444-0000000000000000-22222222------|
D|-----------------------------------------|

G|-----------------------------------------|
D|-----------------------------------------|
A|444444444-0000000000000000-22222222------|
D|-----------------------------------------|

G|---------------------------------------------------------------------------|
D|---------------------------------------------------------------------------|
A|00000000-222222222-33333333-44444444-000000000000000000-2222222222222222---|
D|---------------------------------------------------------------------------|

 Verse x2

 Pause

 Chorus

 Bridge x6
G|-----------------------------------------|
D|-----------------------------------------|
A|444444444-0000000000000000-22222222------|
D|-----------------------------------------|

G|------------------------------------------------------|
D|------------------------------------------------------|
A|0-0-0-0-2-2-2-2-3-3-3-3-4-4-4-4-0-0-0-0-0-0-0-0-0-2~--|
D|------------------------------------------------------|

 Chorus

 Outro x2
G|--------------------------------------|
D|--------------------------------------|
A|-------------0000--------------0000---|
D|2-222-2-2222------2-222-2-2222--------|

G|--------|
D|--------|
A|--------|
D|2~------|

===============================================================================
Suggest correction
Creating personal tab
Creating personal tab
You can edit any tab online and save it as your Personal.

You can edit, replace or remove any tab part or add personal notes – all changes will be seen only by you.

Personal tabs can be accessed anytime from any device, even offline.
Learn more »
comments
print report bad tab
1 comment total.
0 reply
CoheedFan28 469 Jul 28, 2010 11:01 AM

Wow this is flawless, very nice work dude

guest
You may want to rate the tab now too:
select rating
Wanna post a correction for this tab? Suggest correction