Oops, an error
Loading. Please wait.

Frozen Creek Tab

version 1
version 1

Acoustic

Whole song

55 views 9 this week
no commentswrite comment
1 2 3 4 5
1 last vote to show rating
add to favorites
launch autoscroll
font size
0
reset
how to read this tab
guitar tuner
Autoscroll
slow
fast
+/-
esc
set tempo
stop
Help us to improve Ultimate-Guitar.com Take our survey!
×
Author
Difficulty
Capo
novice
4th fret
These are the first tabs I've ever posted I hope you enjoy. 
Please let me know if anything is wrong. thank you


E :0----------------|------------------|x2
B :0--3-/5--5--5----|-0--p3--/5--------|
G :0--------0--0--4-|-0---0--/0--------|
D :2--------0--0--5-|-2---2--/4--------|
A :2--------0--5--5-|-3---3--/5--------|
E :0--------5-----3-|-x---x------------|

Upon a pebble driveway
There sits a house
And it's the loneliest place
I haven't spent much time there, 
It wasn't allowed, 
It just didn't feel right

So here are the verse chords :
E :0----------------|------------------|
B :0--3-/5--5--5----|-0--p3--/5--------|
G :0--------0--0--4-|-0---0--/0--------|
D :2--------0--0--5-|-2---2--/4--------|
A :2--------0--5--5-|-3---3--/5--------|
E :0--------5-----3-|-x---x------------|

Then end on this chord to switch into the chorus:
E :----------------|
B :0---------------|
G :0---------------|
D :2---------------|
A :3---------------|
E :x---------------|

'Cause it's all built upon a burial ground, 
It just doesn't feel right, 
It just doesn't feel right

On top the frozen creek, 
I would love to take you there
I swear it flows through me
On top the frozen creek

These are the chords for the chorus:
E|--0--0--0--0--|--0--0--0----|--7--------|--
B|--1--0--0--0--|--0--0--0----|--8--------|--
G|--2--2--2--0--|--0--0--0----|--9--------|--
D|--2--0--0--2--|--2--4--4----|--9--------|--
A|--0--2--2--3--|--3--5--5----|--7--------|--
E|--------------|-------------|-----------|--

E|--0--0--0--0--|--0--0--0--0--|--10p7\3--2p0--|--0--0--0--|--
B|--1--0--0--0--|--0--0--0--0--|---------------|--0--0--0--|--
G|--2--2--2--0--|--0--0--0--0--|---------------|--0--0--0--|--
D|--2--0--0--2--|--2--4--4--2--|---------------|--2--2--2--|--
A|--0--2--2--3--|--3--5--5--2--|---------------|--2--2--2--|--
E|--------------|-----------0--|---------------|--0--0--0--|--
 
solo 
e|------------------------------------------------------------------|
B|---------7-3------------------------------------------------------|
G|-------------4~---2h4--2h4--0~------------------------------------|
D|--2-4-5-------------------------4~--------------------------------|
A|------------------------------------------------------------------|
E|------------------------------------------------------------------|

If I open both of my eyes, 
I still see an empty space, so empty
But if I keep them closed
Then there's still a chance that something is out there

'Cause it's all built upon a burial ground, 
It just doesn't feel right
It just doesn't feel right

On top the frozen creek, 
I would love to take you there
I swear it flows through me
On top the frozen creek

Chorus again
These are the chords for the chorus:
E|--0--0--0--0--|--0--0--0----|--7--------|--
B|--1--0--0--0--|--0--0--0----|--8--------|--
G|--2--2--2--0--|--0--0--0----|--9--------|--
D|--2--0--0--2--|--2--4--4----|--9--------|--
A|--0--2--2--3--|--3--5--5----|--7--------|--
E|--------------|-------------|-----------|--

I made a promise to you long ago
I'd do the best that I can
I'd try and keep it
I made a promise to you long ago
That I'd do anything to keep this home

bridge:
E :----------------|
B :3---5--0--5-----|
G :0---0--0--0-----|
D :2---4--5--4-----|
A :3---5--7--5-----|
E :----------------|

Then that repeats and you end the bridge on this chord that leads into the chorus:
E :----------------|
B :3---------------|
G :0---------------|
D :2---------------|
A :2---------------|
E :----------------|

On top the frozen creek, 
I would love to take you there
I swear it flows through me
On top of the frozen creek
I would love to take you there

E|--0--0--0--0--|--0--0--0----|--7--------|--
B|--1--0--0--0--|--0--0--0----|--8--------|--
G|--2--2--2--0--|--0--0--0----|--9--------|--
D|--2--0--0--2--|--2--4--4----|--9--------|--
A|--0--2--2--3--|--3--5--5----|--7--------|--
E|--------------|-------------|-----------|--

E|--0--0--0--0--|--0--0--0--0--|--0--0--0--|--
B|--1--0--0--0--|--0--0--0--0--|--0--0--0--|--
G|--2--2--2--0--|--0--0--0--0--|--0--0--0--|--
D|--2--0--0--2--|--2--4--4--2--|--2--2--2--|--
A|--0--2--2--3--|--3--5--5--2--|--2--2--2--|--
E|--------------|-----------0--|--0--0--0--|--
 
I would love to take you there
Suggest correction
Give kudos to tab author, rate the tab!
1 2 3 4 5
comments
print report bad tab
guest
You may want to rate the tab now too:
select rating
Wanna post a correction for this tab? Suggest correction