Oops, an error
Loading. Please wait.

Glass Arrows drums

version 1
version 1

Whole song

Interactive

84 views 1 this week
no commentswrite comment
1 2 3 4 5
3 more votes to show rating
add to favorites
×
Save as Personal and add changes to this tab that will be seen only by you. Learn more ›
×
You can save this tab as Personal to edit and correct it or add notes. All changes will be seen only by you. Learn more »
launch autoscroll
font size
0
reset
guitar tuner
edit
Autoscroll
slow
fast
+/-
esc
set tempo
stop
Author
Difficulty
I understand that this will be hard to read initially, 
but if you follow the rules you'll pick it up easily.

These are the rules.
1. Each number is assigned to a percussion.
2. Each line is assigned a number.
3. All numbers equal the line's number plus that number. 
4. "F" at the top means flam the note below it.
5. "*" after a note means to stop that note.
6. Notes that are in parenthesis are just softer notes, not necessarily ghost notes

A General MIDI drum list:
35 Bass Drum 
36 Bass Drum 
37 Side Stick
38 Snare Drum 
39 Hand Clap
40 Snare: Rim Shot
41 Low Tom 2 (18")
42 Closed Hi-hat
43 Low Tom 1 (16")
44 Pedal Hi-hat
45 Mid Tom 2 (13")
46 Open Hi-hat
47 Mid Tom 1 (12")
48 High Tom 2 (10")
49 Crash Cymbal 1
50 High Tom 1 (8")
51 Ride Cymbal 1
52 Chinese Cymbal
53 Ride Bell
54 Tambourine
55 Splash Cymbal
56 Cowbell
57 Crash Cymbal 2

These are all the same as the universal numbers for MIDI drums as well.
I suggest familiarizing yourself with the numbers throughout the tab.
I try to keep all the notes the same and on the same lines, but there are parts where I had to move hits
around to make it work. 

Good Luck! 


BPM: 150 
TS: 5/4
                         Intro                                         
49 :--------------------|--------------------|--------------------|
37 :--------------------|--------------------|--------------------|
46 :--------------------|5-5-5-5-5-5-5-5-5-5-|5-5-5-5-5-5-5-5-5-5-|
42 :--------------------|--------------------|--------------------|
38 :--------------------|0-----0-----0-----0-|0-----0-----0-------|
35 :--------------------|--------------------|----------------0-0-|

                                              Verse 1                    
49 :--------------------|--------------------|--------------------|
37 :--------------------|--------------------|--------------------|
46 :5-5-5-5-5-5-5-5-5-5-|5-5-5-5-5-5-5-5-5-5-|5-5-5-5-5-5-5-5-5-5-|
42 :--------------------|--------------------|--------------------|
38 :0-----0-----0-----0-|0-----0-----0-------|0-----0-----0-----0-|
35 :--------------------|----------------0-0-|--------------------|

                                                                  
49 :--------------------|--------------------|--------------------|
37 :--------------------|--------------------|--------------------|
46 :5-5-5-5-5-5-5-5-5-5-|5-5-5-5-5-5-5-5-5-5-|5-5-5-5-5-5-5-5-5-5-|
42 :--------------------|--------------------|--------------------|
38 :0-----0-----0-------|0-----0-----0-----0-|0-----0-----0-------|
35 :----------------0-0-|--------------------|----------------0-0-|

                                                                  
49 :--------------------|--------------------|--------------------|
37 :--------------------|--------------------|--------------------|
46 :5-5-5-5-5-5-5-5-5-5-|5-5-5-5-5-5-5-5-5-5-|5-5-5-5-5-5-5-5-5-5-|
42 :--------------------|--------------------|--------------------|
38 :0-----0-----0-----0-|0-----0-----0-------|0-----0-----0-----0-|
35 :--------------------|----------------0-0-|--------------------|

                                                                  
49 :--------------------|8-------------------|--------------------|
37 :--------------------|--------------------|--------------------|
46 :5-5-5-5-5-5-5-5-5-5-|--5-5-5-5-5-5-5-5-5-|5-5-5-5-5-5-5-5-5-5-|
42 :--------------------|--------------------|--------------------|
38 :0-----0-----0-------|0-----0-----0-----0-|0-----0-----0-------|
35 :----------------0-0-|--------------------|----------------0-0-|

                                                                  
49 :8-------------------|--------------------|8-------------------|
37 :--------------------|--------------------|--------------------|
46 :--5-5-5-5-5-5-5-5-5-|5-5-5-5-5-5-5-5-5-5-|--5-5-5-5-5-5-5-5-5-|
42 :--------------------|--------------------|--------------------|
38 :0-----0-----0-----0-|0-----0-----0-------|0-----0-----0-----0-|
35 :----0---------------|----------------0-0-|----0---------------|

                                              
49 :--------------------|8-------------------|
37 :--------------------|--------------------|
46 :5-5-5-5-5-5-5-5-5-5-|--5-5-5-5-5-5-5-5-5-|
42 :--------------------|--------------------|
38 :0-----0-----0-------|0-----0-----0-------|
35 :----------------0-0-|----0-------------00|

                         Pre-Chorus 1                   
49 :--------------------|0-------------------|
37 :--------------------|--------------------|
46 :5-----5-----5-------|------------0-------|
42 :--------------------|----0---0-------0---|
38 :0-00--0-00--0-000-00|------0---------0---|
35 :-0--00-0--00--------|0---0---0---0---0---|

                                                                     
49 :--------------------|--------------------|--------------------|
37 :--------------------|--------------------|--------------------|
46 :0-------------------|0-----------0-------|0-----------0-------|
42 :----0---0---0---0---|----0---0-------0---|----0---0-----2-----|
38 :------0-----0---0---|------0---------0---|------0-------000-00|
35 :0---0---0---0---0---|0---0---0---0---0---|0---0---0---0-------|

                                                                  
49 :--------------------|--------------------|--------------------|
37 :--------------------|--------------------|--------------------|
46 :0-----------0-------|0-------------------|0-----------0-------|
42 :----0---0-------0---|----0---0---0---0---|----0---0-------0---|
38 :------0---------0---|------0-----0---0---|------0---------0---|
35 :0---0---0---0---0---|0---0---0---0---0---|0---0---0---0---0---|

                                                                      
49 :--------------------|0-------------------|--------------------|
37 :--------------------|--------------------|--------------------|
46 :0-----------0-------|----0---0---0---0---|0---0---0---0---0---|
42 :----0---0-----2-----|--------------------|--------------------|
38 :------0-------000-00|------0---------0---|------0---------0-00|
35 :0---0---0---0-------|0---0---0---0---0---|0---0---0---0---0---|

                                         F    Chrous 1                    
49 :0-------------------|--------------------|0-------------------|
37 :--------------------|--------------------|--------------------|
46 :----0---0---0---0---|0---0---0---0-------|----5---5---5---5---|
42 :--------------------|--------------------|--------------------|
38 :------0---------0---|------0---------0---|------0---------0--0|
35 :0---0---0---0---0---|0---0---0---0-0---0-|0---------0-0-------|

                                                                      
49 :--------------------|0-------------------|--------------------|
37 :--------------------|--------------------|--------------------|
46 :5---5---5---5---5---|----5---5---5---5---|5---5---5---5-------|
42 :--------------------|--------------------|--------------------|
38 :------0---------0---|------0---------0-00|------0---------0000|
35 :0-0-------0-0-------|0---------0-0-------|0-0-0-----0-0-------|

                                                                   
49 :0-------------------|--------------------|0-------------------|
37 :--------------------|--------------------|--------------------|
46 :----5---5---5---5---|5---5---5---5-------|----5---5---5---5---|
42 :--------------------|--------------------|--------------------|
38 :------0---------0-00|------0---------0---|0-----0-----0---0---|
35 :0---------0-0-------|0-0-0-----0-0-----0-|--0-0-----0---0---0-|

                         Pre-Verse                                         
49 :--------------------|0-------------------|--------------------|
37 :--------------------|--------------------|--------------------|
46 :5---5---5---0-0-0---|------------0-------|0-------------------|
42 :--------------------|2---0---0-------0---|----0---0---0---0---|
38 :0-----0-----0-0-0---|------0---------0---|------0-----0---0---|
35 :--0-0-----0---------|0---0---0---0---0---|0---0---0---0---0---|

                                               Verse 2                    
49 :--------------------|--------------------|0-------------------|
37 :--------------------|--------------------|--------------------|
46 :0-----------0-------|0-----------0-------|------------0-------|
42 :----0---0-------0---|----0---0-----55----|----0---0-------0---|
38 :------0---------0---|------0---------0-00|------0---------0---|
35 :0---0---0---0---0---|0---0---0---0-------|0---0---0---0---0---|

                                                                     
49 :--------------------|--------------------|--------------------|
37 :--------------------|--------------------|--------------------|
46 :0-------------------|0-----------0-------|0-----------0-------|
42 :----0---0---0---0---|----0---0-------0---|----0---0-----2-----|
38 :------0-----0---0---|------0---------0---|------0-------000-00|
35 :0---0---0---0---0---|0---0---0---0---0---|0---0---0---0-------|

                                                                  
49 :--------------------|--------------------|--------------------|
37 :--------------------|--------------------|--------------------|
46 :0-----------0-------|0-------------------|0-----------0-------|
42 :----0---0-------0---|----0---0---0---0---|----0---0-------0---|
38 :------0---------0---|------0-----0---0---|------0---------0---|
35 :0---0---0---0---0---|0---0---0---0---0---|0---0---0---0---0---|

                        
49 :--------------------|
37 :--------------------|
46 :0-----------0---0---|
42 :----0---0-----------|
38 :------0-----0---0---|
35 :0---0---0---0---0---|

    Pre-Chorus 1                                                        
49 :0-------------------------------------------------------|
37 :--------------------------------------------------------|
46 :--------------------------------------------------------|
42 :--------------------------------------------------------|
38 :--(0)(0)(0)(0)(0)0-(0)(0)(0)(0)(0)0-(0)(0)(0)0-(0)(0)(0)|
35 :0-----------0----------0----------0----------0----------|

                                                            
49 :--------------------------------------------------------|
37 :--------------------------------------------------------|
46 :--------------------------------------------------------|
42 :--------------------------------------------------------|
38 :0-(0)(0)(0)(0)(0)0-(0)(0)(0)(0)(0)0-(0)(0)(0)0-(0)(0)(0)|
35 :0-----------0----------0----------0----------0----------|

                                                            
49 :--------------------------------------------------------|
37 :--------------------------------------------------------|
46 :--------------------------------------------------------|
42 :--------------------------------------------------------|
38 :0-(0)(0)(0)(0)(0)0-(0)(0)(0)(0)(0)0-(0)(0)(0)0-(0)(0)(0)|
35 :0-----------0----------0----------0----------0----------|

                                                        
49 :----------------------------------------------------|
37 :----------------------------------------------------|
46 :----------------------------------------------------|
42 :----------------------------------------------------|
38 :0-(0)(0)(0)(0)(0)0-(0)(0)(0)(0)(0)0-(0)(0)(0)0-0-0-0|
35 :0-----------0----------0----------0----------0------|

                                                                  
49 :--------------------|--------------------|--------------------|
37 :--------------------|--------------------|--------------------|
46 :--------------------|--------------------|--------------------|
42 :--------------------|--------------------|--------------------|
38 :0-------------------|--------------------|--------------------|
35 :0-------------------|--------------------|--------------------|

                         Chorus 2                                         
49 :--------------------|0-------------------|--------------------|
37 :--------------------|--------------------|--------------------|
46 :--------------------|----5---5---5---5---|5---5---5---5---5---|
42 :--------------------|--------------------|--------------------|
38 :----------------0---|------0---------0--0|------0---------0---|
35 :------------------0-|0---------0-0-------|0-0-------0-0-------|

                                                                       
49 :0-------------------|--------------------|0-------------------|
37 :--------------------|--------------------|--------------------|
46 :----5---5---5---5---|5---5---5---5-------|----5---5---5---5---|
42 :--------------------|--------------------|--------------------|
38 :------0---------0-00|------0---------0000|------0---------0-00|
35 :0---------0-0-------|0-0-0-----0-0-------|0---------0-0-------|

                                                                
49 :--------------------|0-----8-----0-------|0-----8-----0-------|
37 :--------------------|--------------------|--------------------|
46 :5---5---5---5---5---|----------------5---|--------------------|
42 :--------------------|--------------------|----------------5511|
38 :------0---------0---|-00000-00000-000-000|-00000-00000-000----|
35 :0-0-0-----0-0-------|0-----0-----0---0---|0-----0-----0-------|

                                          

    Bridge                                                        
49 :0-------------------------------------------------------|
37 :--------------------------------------------------------|
46 :--------------------------------------------------------|
42 :--(1)(1)(1)(1)(1)1-(1)(1)(1)(1)(1)1-(1)(1)(1)1-(1)(1)(1)|
38 :--------------------------------------------------------|
35 :0-----------0----------0----------0----------0----------|

                                                        
49 :----------------------------------------------------|
37 :----------------------------------------------------|
46 :----------------------------------------------------|
42 :1-(1)(1)(1)(1)(1)1-(1)(1)(1)(1)(1)1-(1)(1)(1)1-1-1-1|
38 :----------------------------------------------------|
35 :0-----------0----------0----------0----------0------|

                                                            
49 :--------------------------------------------------------|
37 :--------------------------------------------------------|
46 :--------------------------------------------------------|
42 :1-(1)(1)(1)(1)(1)1-(1)(1)(1)(1)(1)1-(1)(1)(1)1-(1)(1)(1)|
38 :--------------------------------------------------------|
35 :0-----------0----------0----------0----------0----------|

                                                        
49 :----------------------------------------------------|
37 :----------------------------------------------------|
46 :----------------------------------------------------|
42 :1-(1)(1)(1)(1)(1)1-(1)(1)(1)(1)(1)1-(1)(1)(1)1-1-1-1|
38 :----------------------------------------------------|
35 :0-----------0----------0----------0----------0------|

                                                            
49 :--------------------------------------------------------|
37 :--------------------------------------------------------|
46 :--------------------------------------------------------|
42 :1-(1)(1)(1)(1)(1)1-(1)(1)(1)(1)(1)1-(1)(1)(1)1-(1)(1)(1)|
38 :--------------------------------------------------------|
35 :0-----------0----------0----------0----------0----------|

                                                        
49 :----------------------------------------------------|
37 :----------------------------------------------------|
46 :----------------------------------------------------|
42 :1-(1)(1)(1)(1)(1)1-(1)(1)(1)(1)(1)1-(1)(1)(1)1-1-1-1|
38 :----------------------------------------------------|
35 :0-----------0----------0----------0----------0------|

                                                            
49 :--------------------------------------------------------|
37 :--------------------------------------------------------|
46 :--------------------------------------------------------|
42 :1-(1)(1)(1)(1)(1)1-(1)(1)(1)(1)(1)1-(1)(1)(1)1-(1)(1)(1)|
38 :--------------------------------------------------------|
35 :0-----------0----------0----------0----------0----------|

                                                        
49 :----------------------------------------------------|
37 :----------------------------------------------------|
46 :----------------------------------------------------|
42 :1-(1)(1)(1)(1)(1)1-(1)(1)(1)(1)(1)1-(1)(1)(1)1-1-1-1|
38 :----------------------------------------------------|
35 :0-----------0----------0----------0----------0------|

                                 Interlude                            F    
49 :--------------------8---8---|8-------------------|--------------------|
37 :----------------------------|--------------------|--------------------|
46 :--------------------3---3---|3---5---5---5---5---|5---5---5---5-------|
42 :1---------------------------|--------------------|--------------------|
38 :----------------------------|------0---------0-00|------0---------0---|
35 :0-------------------0---0---|0---------0-0-------|0-0-------0-0-----0-|

                                                                       
49 :0-------------------|--------------------|0-------------------|
37 :--------------------|--------------------|--------------------|
46 :----5---5---5---5---|5---5---5---5-------|----5---5---5---5---|
42 :--------------------|------------------55|--------------------|
38 :------0---------0-00|------0---------00--|------0---------0-00|
35 :0---------0-0-------|0-0-0-----0-0-------|0---------0-0-------|

                                                                  
49 :--------------------|0-------------------|------0-------------|
37 :--------------------|--------------------|--------------------|
46 :5---5---5---5---5---|----5---5---5---5---|0-----------0-0-0---|
42 :--------------------|--------------------|--------------------|
38 :------0---------0---|------0---------0---|0-----0-----0-0-0---|
35 :0-0-0-----0-0-----0-|0---------0-0-----0-|--0-0---0-0---------|

    Chorus 3                                                               
49 :8-------------------|--------------------|0-------------------|
37 :--------------------|--------------------|--------------------|
46 :3---5---5---5---5---|5---5---5---5---5---|----5---5---5---5---|
42 :--------------------|--------------------|--------------------|
38 :------0---------0-00|------0---------0---|------0---------0---|
35 :0---------0-0-------|0-0-------0-0-----0-|0---------0-0-------|

                                                                      
49 :--------------------|0-------------------|--------------------|
37 :--------------------|--------------------|--------------------|
46 :5---5---5---5-------|----5---5---5---5---|5---5---5---5---5---|
42 :--------------------|--------------------|--------------------|
38 :------0---------0000|------0---------0-00|------0-----0---0---|
35 :0-0-0-----0-0-------|0---------0-0-------|0-0-0-----0---0-----|

                                         F                          
49 :0-------------------|------0-------------|8-------------------|
37 :--------------------|--------------------|--------------------|
46 :5---5---5---5---5---|0-------------------|3---5---5---5---5---|
42 :--------------------|------------5-------|--------------------|
38 :------0---------0---|0-----0-----5---0---|------0---------0-00|
35 :0---------0-0-----0-|--0-0---0-0---0-----|0---------0-0-------|

                                                                       
49 :---------------------|0-------------------|-------------------|
37 :---------------------|--------------------|-------------------|
46 :5---5---5---5----0---|----5---5---5---5---|5---5---5---5------|
42 :---------------------|--------------------|-------------------|
38 :------0----------0---|------0---------0-00|------0--------0000|
35 :0-0-0-----0-0--0---0-|0---------0-0-------|0-0-0-----0-0------|

                                                              F    
49 :0-------------------|--------------------|0-------------------|
37 :--------------------|--------------------|--------------------|
46 :----5---5---5---5---|5---5---5---5---5---|----5---5-----------|
42 :--------------------|--------------------|------------5-------|
38 :------0---------0-00|------0---------0---|0-----0-----5---0---|
35 :0---------0-0-------|0-0-0-----0-0-----0-|--0-0---0-0---0---0-|

                         Outro                                       
49 :0-------------------|8-----------8-------|8-----------8-------|
37 :--------------------|--------------------|--------------------|
46 :----5---5---0-0-0---|------5---------5---|------5---------5---|
42 :--------------------|--------------------|--------------------|
38 :0-----0-----0-0-0---|-00000-00000-000-000|-00000-00000-000-000|
35 :--0-0---0-0---------|0-----0-----0---0---|0-----0-----0---0---|


                                           
49 :8-----0-----8---0---|8-----0-----8-------|0-------------------|
37 :--------------------|--------------------|--------------------|
46 :--------------------|--------------------|--------------------|
42 :--------------------|--------------------|--------------------|
38 :-00000-00000-000-000|-00000-00000-0000000|--------------------|
35 :0-----0-----0---0---|0-----0-----0-------|0-------------------|

                                                                
Suggest correction
Creating personal tab
Creating personal tab
You can edit any tab online and save it as your Personal.

You can edit, replace or remove any tab part or add personal notes – all changes will be seen only by you.

Personal tabs can be accessed anytime from any device, even offline.
Learn more »
Give kudos to tab author, rate the tab!
1 2 3 4 5
comments
print report bad tab
guest
You may want to rate the tab now too:
select rating
Wanna post a correction for this tab? Suggest correction