Oops, an error
Loading. Please wait.

In Fear And Faith Bass Tab

version 1
version 1

Whole song

Interactive

5,245 views 1 this week
1 commentread comment
1 2 3 4 5
3 more votes to show rating
add to favorites
launch autoscroll
font size
0
reset
guitar tuner
Autoscroll
slow
fast
+/-
esc
set tempo
stop
Help us to improve Ultimate-Guitar.com Take our survey!
×
Author
Difficulty
intermediate
this song  99.9% right. there is only one note i am missing in the beginning of the 
chorus. enjoy and tell me what you think

guitar intro


verse1

E-----------------------------------------------------------|
A-----------------------------------------------------------|
D-----5h6h7-------5h6h7-------5h6h7--------------3h4h5------|
G-----------55555-------55555-------55555--3h4h5------------|

when coming back into verse1 after the prechorus, substitute
the bottom half of this chorus and keep playing the first half
without the 3h4h5's

E-----------------------------------------------------------|
A-----------------------------------------------------------|
D-----3h4h5-------3h4h5-------3h4h5--------------3h4h5------|
G-----------33333-------33333-------33333--3h4h5------------|

im not sure what to call this. ill just call it a prechorus

pre-chorus

E-----------------------------------------------------------|
A------------8----8--------6--------------------------------|
D-----5--5------------5--5----------------------------------|
G--------------10-------------------------------------------|

verse2

E-----------------------------------------------------------|
A-----------------------------------------------------------|
D-----5h8p5-------5h8p5-------5h8p5--------------3h4h5------|
G------------5555--------5555-------5555--3h4h5-------------|


E-----------------------------------------------------------|
A-----------------------------------------------------------|
D-----3h5p3-------3h5p3-------3h5p3--------------3h4h5------|
G-----------5555--------5555--------5555--3h4h5-------------|


chorus
E-----------------------------------------------------------|
A-----------------------------------------6-6---------------|
D----3h5-555555555555---5h7-777777777777------8-8-----------|
G-----------------------------------------------------------|

order:
guitar intro(no bass)
verse1 x1
pre-chorus x2
verse2 x1
pre-chorus x2
chorus x2
pre-chorus x2
verse1 x1
guitar interlude
chorus x3


i know the way i tabbed it is kind of confusing but it takes to long to tab this song 
other way. listen closely for the bass line and listen for timing. youll get it.

enjoy tell me what you think
Suggest correction
Give kudos to tab author, rate the tab!
1 2 3 4 5
comments
print report bad tab
1 comment total.
0 reply
your lungs out 31 Jan 06, 2007 11:07 AM

ok im really sorry i completely messed up the tabbing on this. dont use this one cuz its deffinately wrong. ill put up another tab right now

guest
You may want to rate the tab now too:
select rating
Wanna post a correction for this tab? Suggest correction