Oops, an error
Loading. Please wait.

In Fear And Faith Tab

version 1
version 1

Whole song

Interactive

14,381 views 18 this week
2 commentsread comments
1 2 3 4 5
worth learning
x 5
add to favorites
launch autoscroll
font size
0
reset
how to read this tab
guitar tuner
Tab Pro tools
  • play this tab
  • loop segment
  • change instrument
  • show fretboard
  • metronome
×
Best way to learn
"In Fear And Faith"
Autoscroll
slow
fast
+/-
esc
set tempo
stop
Contributor
Difficulty
novice
-------------------------------------------------------------------------------
                             In Fear and Faith - Circa Survive
-------------------------------------------------------------------------------
Tabbed by:
Email:

I couldn't find this tab anywhere so i figured i would tab it out myself. This is my first tab 
though. There are a lot of lead parts missing in the song so i hope someone can figure them out.

Verse 
e|---------------------------------------------------------------------------|
B|-8-8-8-8-8-8-8-8-8-8-8-8-11-11-10-10-6-6-6-6-6-6-6-6-6-6-6-6-13-13-10-10---|
G|---------------------------------------------------------------------------|  x3
D|---------------------------------------------------------------------------| 
A|---------------------------------------------------------------------------|
E|---------------------------------------------------------------------------|

e|-----------------------------|
B|-0-0-0--0-0-0--0-0-0--0-0-0--|
G|-0-0-0--0-0-0--0-0-0--0-0-0--|
D|-3-7-3--3-7-3--3-7-3--3-7-3--|
A|-----------------------------|
E|-----------------------------|

e|---------------------------------------------------------------------------|
B|-8-8-8-8-8-8-8-8-8-8-8-8-11-11-10-10-6-6-6-6-6-6-6-6-6-6-6-6-13-13-10-10---|
G|---------------------------------------------------------------------------|  x2
D|---------------------------------------------------------------------------| 
A|---------------------------------------------------------------------------|
E|---------------------------------------------------------------------------|

e|-----------------------------|
B|-0-0-0--0-0-0--0-0-0--0-0-0--|
G|-0-0-0--0-0-0--0-0-0--0-0-0--|
D|-3-7-3--3-7-3--3-7-3--3-7-3--|
A|-----------------------------|
E|-----------------------------|

Chorus
e|--------------------------------------------------|
B|--------------------------------------------------|
G|-55555555/14141414141414\33333333/15151515151515--| x4
D|--------------------------------------------------| 
A|--------------------------------------------------|
E|--------------------------------------------------|

e|-------------------------------|
B|-8-8-8-8-8-8-8-8-8-8-8-8-8-8-8-|
G|-------------------------------|
D|-------------------------------|
A|-------------------------------|
E|-------------------------------|

e|-------------------------------------------------|
B|-8-8-8-8-8-8-8-8-6-6-6-6-6-6-6-6-4-4-4-4-4-4-4-4-|
G|-------------------------------------------------|
D|-------------------------------------------------| x3
A|-------------------------------------------------|
E|-------------------------------------------------|

Chorus
e|--------------------------------------------------|
B|--------------------------------------------------|
G|-55555555/14141414141414\33333333/15151515151515--| x6
D|--------------------------------------------------| 
A|--------------------------------------------------|
E|--------------------------------------------------|

| /  slide up
| \  slide down
| h  hammer-on
| p  pull-off
| ~  vibrato
| +  harmonic
| x  Mute note
comments
print report bad tab
2 comments total.
0 reply
nico-101 wrote on November 9 2006, 08:24 pm

sucks...

0 reply
JumpKickDance wrote on June 24 2007, 09:10 pm

Wrong

I want to post or [tab]
guest
You may want to rate the tab now too:
select rating
Please do not post tabs as comments. Select "correction" instead!