Oops, an error
Loading. Please wait.

In Fear And Faith bass

version 2
version 2

Whole song

Interactive

2,110 views 6 this week
1 commentread comment
1 2 3 4 5
3 more votes to show rating
add to favorites
×
Save as Personal and add changes to this tab that will be seen only by you. Learn more ›
×
You can save this tab as Personal to edit and correct it or add notes. All changes will be seen only by you. Learn more »
launch autoscroll
font size
0
reset
guitar tuner
edit
Autoscroll
slow
fast
+/-
esc
set tempo
stop
im pretty positive this is right.


Verse one x2
G:-6/8------6/8------6/8-------------4/6----------------------|
D:-----66666----66666----66666--4/64-----4--------------------|
A:------------------------------------------------------------|
E:------------------------------------------------------------|

G:-4/6-----4/6------4/6---------4---4/6-----------------------|
D:----44444----44444----44444--4-4-----4----------------------|
A:------------------------------------------------------------|
E:------------------------------------------------------------|

Pre-chores
G:----------------------------|
D:----------------------------|
A:----------------------------|
E:-442~-------440~------------|

Verse two x2
G:-----888------888------888-------4/6------------------------|
D:-6/86-----6/86-----6/86-----6/86----4-----------------------|
A:------------------------------------------------------------|
E:------------------------------------------------------------|

G:-----666------666------666-------4/6------------------------|
D:-4/64-----4/64-----4/64-----6/84----6-----------------------|
A:------------------------------------------------------------|
E:------------------------------------------------------------|

Pre-chores
G:----------------------------|
D:----------------------------|
A:----------------------------|
E:-442~-------440~------------|

Chores x2
G:------------------------------------------------------------------|
D:------------------------------------------------------------------|
A:------------------------------------------------------------------|
E:-4-444-444-444-4--4/666-666-66-6-6--0-0/7-77-7-77--0-0/6-66-6-66--|

Verse three x12
G:-6/8---------|
D:-----66666---|
A:-------------|
E:-------------|

Chores x2
G:------------------------------------------------------------------|
D:------------------------------------------------------------------|
A:------------------------------------------------------------------|
E:-4-444-444-444-4--4/666-666-66-6-6--0-0/7-77-7-77--0-0/6-66-6-66--|

(therd and last time play this)
G:--------------------------------------------------------------------|
D:--------------------------------------------------------------------|
A:--------------------------------------------------------------------|
E:-4-444-444-444-4--4/666-666-66-6-6--0-0/7-77-7-77--4~---------------|

/- slide
~- hold


I <3 Anthony Green!!!

            
            
Suggest correction
Creating personal tab
Creating personal tab
You can edit any tab online and save it as your Personal.

You can edit, replace or remove any tab part or add personal notes – all changes will be seen only by you.

Personal tabs can be accessed anytime from any device, even offline.
Learn more »
Give kudos to tab author, rate the tab!
1 2 3 4 5
comments
print report bad tab
1 comment total.
0 reply
ljpbass24 16 Mar 05, 2007 01:30 PM

for the verse try:
G- 6h7h8 6h7h8 4h5h6
D- 6666 6666 4h5h6p4 4444
A-
E-

i saw Nick play it live like that, and it sounds right.
The guitars are also tuned half-step down.

guest
Wanna post a correction for this tab? Suggest correction