Oops, an error
Loading. Please wait.

In Fear And Faith tab

version 2
version 2

Whole song

Interactive

3,962 views 1 this week
no commentswrite comment
1 2 3 4 5
3 more votes to show rating
add to favorites
×
Save as Personal and add changes to this tab that will be seen only by you. Learn more ›
×
You can save this tab as Personal to edit and correct it or add notes. All changes will be seen only by you. Learn more »
launch autoscroll
font size
0
reset
how to read this tab
guitar tuner
edit
Autoscroll
slow
fast
+/-
esc
set tempo
stop
                              In Fear And Faith                                 


                                                                   Circa Survive
Untitled



      W                   W                   W                 
D#||-------------------|-------------------|-------------------|
A#||-------------------|-------------------|-------------------|
F#||-------------------|-------------------|-------------------|
C#||-------------------|-------------------|-------------------|
G#||-------------------|-------------------|-------------------|
D#||-------------------|-------------------|-------------------|


  W                   W                   W                   W                 
-------------------|-------------------|-------------------|-------------------|
-------------------|-------------------|-------------------|-------------------|
-------------------|-------------------|-------------------|-------------------|
-------------------|-------------------|-------------------|-------------------|
-------------------|-------------------|-------------------|-------------------|
-------------------|-------------------|-------------------|-------------------|


  W                   W                   W                 
-------------------|-------------------|-------------------|
-------------------|-------------------|-------------------|
-------------------|-------------------|-------------------|
-------------------|-------------------|-------------------|
-------------------|-------------------|-------------------|
-------------------|-------------------|-------------------|


  E   E  E  E  H           E  E  E  E  H           E  E  E  E  H         
------------------------|-----------------------|-----------------------|
---------0--------------|--------0--------------|--------0--------------|
------------------------|-----------------------|-----------------------|
-----/6-----6--8--------|--L--6-----6--8--------|--L--6-----6--8--------|
------------------------|-----------------------|-----------------------|
------------------------|-----------------------|-----------------------|


  Q.     Q.      Q       Q     E  Q.      Q        H.            E  E   
----------------------|------------------------|-----------------------|
----------------------|------------------------|-----------------------|
--8-------------------|-----------8------------|--------------------8--|
---------9------11----|-------11---------11----|---L------------11-----|
----------------------|--9---------------------|-----------------------|
----------------------|------------------------|-----------------------|


  H.           E    E      Q.      Q.      Q        Q     E   Q.      E   E   
-----------------------|------------------------|----------------------------|
-----------------------|------------------------|--------14--16--------------|
--L--------------------|------------------15----|--13----------------13------|
-----------------------|----------16------------|------------------------16--|
---------------9s--14--|---L--------------------|----------------------------|
-----------------------|------------------------|----------------------------|


   E   E   E   Q.      E   E      E   E   E   Q.      Q      
------------------------------|-----------------------------|
----------14--16--------------|----------14--16-------------|
--13------------------13------|--13------------------13S----|
------16------------------16--|------16---------------------|
------------------------------|-----------------------------|
------------------------------|-----------------------------|


  Q.     Q.      Q       Q     E  Q.      Q        H.            E  E   
----------------------|------------------------|-----------------------|
----------------------|------------------------|-----------------------|
--8-------------------|-----------8------------|--------------------8--|
---------9------11----|-------11---------11----|---L------------11-----|
----------------------|--9---------------------|-----------------------|
----------------------|------------------------|-----------------------|


  H.           E    E      Q.      Q.      Q       Q.     Q.     Q     
-----------------------|------------------------|---------------------|
-----------------------|------------------------|--9------9------7----|
--L--------------------|------------------15----|---------------------|
-----------------------|----------16------------|---------------------|
---------------9s--14--|---L--------------------|---------------------|
-----------------------|------------------------|---------------------|


  W                   Q.     Q.     Q       Q     H.            
-------------------|---------------------|---------------------|
--L----------------|--9------9-----------|---------------------|
-------------------|----------------6----|--Ls----8------------|
-------------------|----------------x----|--L-----x------------|
-------------------|----------------4----|--Ls----6------------|
-------------------|---------------------|---------------------|


   Q    E  E   E   Q.        E  E   E   H        E     Q    E  E   Q     Q     
--------------------------|-------------------------|-------------------------|
--------------------------|-------------------------|-------------------------|
--------------------------|-------------------------|-------------------------|
--------------------------|-------------6--------L--|--L----------------------|
--------4--6--(4)---------|--4--6--(4)--------------|-------4--6--(4)----2----|
--/4---------------7------|-------------------------|-------------------------|


  Q     Q.     Q.        E   E  E  E  H           E  E  E  E  H         
----------------------|------------------------|-----------------------|
----------------------|---------0--------------|--------0--------------|
----------------------|------------------------|-----------------------|
---------------4------|-----/6-----6--8--------|--L--6-----6--8--------|
--Ls----4-------------|------------------------|-----------------------|
----------------------|------------------------|-----------------------|


  E  E  E  E  H           Q.     Q.      Q       Q     E  Q.      Q     
-----------------------|----------------------|------------------------|
--------0--------------|----------------------|------------------------|
-----------------------|--8-------------------|-----------8------------|
--L--6-----6--8--------|---------9------11----|-------11---------11----|
-----------------------|----------------------|--9---------------------|
-----------------------|----------------------|------------------------|


   H.            E  E     H.           E    E      Q.      Q.      Q     
-----------------------|-----------------------|------------------------|
-----------------------|-----------------------|------------------------|
--------------------8--|--L--------------------|------------------15----|
---L------------11-----|-----------------------|----------16------------|
-----------------------|---------------9s--14--|---L--------------------|
-----------------------|-----------------------|------------------------|


   Q     E   Q.      E   E      E   E   E   Q.      E   E   
----------------------------|------------------------------|
--------14--16--------------|----------14--16--------------|
--13----------------13------|--13------------------13------|
------------------------16--|------16------------------16--|
----------------------------|------------------------------|
----------------------------|------------------------------|


   E   E   E   Q.      Q        Q.     Q.      Q       Q     E  Q.      Q     
-----------------------------|----------------------|------------------------|
----------14--16-------------|----------------------|------------------------|
--13------------------13S----|--8-------------------|-----------8------------|
------16---------------------|---------9------11----|-------11---------11----|
-----------------------------|----------------------|--9---------------------|
-----------------------------|----------------------|------------------------|


   H.            E  E     H.           E    E      Q.      Q.      Q     
-----------------------|-----------------------|------------------------|
-----------------------|-----------------------|------------------------|
--------------------8--|--L--------------------|------------------15----|
---L------------11-----|-----------------------|----------16------------|
-----------------------|---------------9s--14--|---L--------------------|
-----------------------|-----------------------|------------------------|


  Q.     Q.     Q       W                   Q.     Q.     Q     
---------------------|-------------------|---------------------|
--9------9------7----|--L----------------|--9------9-----------|
---------------------|-------------------|----------------6----|
---------------------|-------------------|----------------x----|
---------------------|-------------------|----------------4----|
---------------------|-------------------|---------------------|


  Q     H.              H.           Q       W                 
---------------------|--------------------|-------------------|
---------------------|--7-----------------|-------------------|
--Ls----8------------|---------------6----|--L----------------|
--L-----x------------|--------------------|-------------------|
--Ls----6------------|--------------------|-------------------|
---------------------|--------------------|-------------------|


  E  E   E  Q.     Q       W                     W                 
------------------------|-------------------||--------------------|
------------------------|-------------------||--------------------|
--6--6s--8--8-----------|-------------------||*-------------------|
-------------------6----|--L----------------||*-------------------|
------------------------|-------------------||--------------------|
------------------------|-------------------||--------------------|


  W                   W                   W                   W                 
-------------------|-------------------|-------------------|-------------------|
-------------------|-------------------|-------------------|-------------------|
-------------------|-------------------|-------------------|-------------------|
-------------------|-------------------|-------------------|-------------------|
-------------------|-------------------|-------------------|-------------------|
-------------------|-------------------|-------------------|-------------------|


  W                   W                   W                   
-------------------|-------------------|--------------------||
-------------------|-------------------|--------------------||
-------------------|-------------------|-------------------*||
-------------------|-------------------|-------------------*||
-------------------|-------------------|--------------------||
-------------------|-------------------|--------------------||


  W                   W                   W                   W                 
-------------------|-------------------|-------------------|-------------------|
-------------------|-------------------|-------------------|-------------------|
-------------------|-------------------|-------------------|-------------------|
-------------------|-------------------|-------------------|-------------------|
-------------------|-------------------|-------------------|-------------------|
-------------------|-------------------|-------------------|-------------------|


    E  E  E  E  E  E  E  E     E  E  E  E  E  E  E  E   
|---------------------------|--------------------------|
|---------9--9--------9--9--|--------9--9--------9--9--|
|*--x--x--8--8--x--x--8--8--|--x--x--8--8--x--x--8--8--|
|*--x--x--9--9--x--x--9--9--|--x--x--9--9--x--x--9--9--|
|---------------------------|--------------------------|
|---------------------------|--------------------------|


  E  E  E  E  E  E  E  E     E  E  E  E  E  E  E  E   
--------------------------|--------------------------|
--------9--9--------9--9--|--------9--9--------9--9--|
--x--x--8--8--x--x--8--8--|--x--x--8--8--x--x--8--8--|
--x--x--9--9--x--x--9--9--|--x--x--9--9--x--x--9--9--|
--------------------------|--------------------------|
--------------------------|--------------------------|


  E  E  E  E  E  E  E  E     E  E  E  E  E  E  E  E       W                 
--------------------------|---------------------------||-------------------|
--------9--9--------9--9--|--------9--9--------9--9---||-------------------|
--x--x--8--8--x--x--8--8--|--x--x--8--8--x--x--8--8--*||-------------------|
--x--x--9--9--x--x--9--9--|--x--x--9--9--x--x--9--9--*||-------------------|
--------------------------|---------------------------||-------------------|
--------------------------|---------------------------||-------------------|


  W                   W                   W                   W                 
-------------------|-------------------|-------------------|-------------------|
-------------------|-------------------|-------------------|-------------------|
-------------------|-------------------|-------------------|-------------------|
-------------------|-------------------|-------------------|-------------------|
-------------------|-------------------|-------------------|-------------------|
-------------------|-------------------|-------------------|-------------------|


  W                   W                   W                   W                 
-------------------|-------------------|-------------------|-------------------|
-------------------|-------------------|-------------------|-------------------|
-------------------|-------------------|-------------------|-------------------|
-------------------|-------------------|-------------------|-------------------|
-------------------|-------------------|-------------------|-------------------|
-------------------|-------------------|-------------------|-------------------|


  W                   W                   W                   W                 
-------------------|-------------------|-------------------|-------------------|
-------------------|-------------------|-------------------|-------------------|
-------------------|-------------------|-------------------|-------------------|
-------------------|-------------------|-------------------|-------------------|
-------------------|-------------------|-------------------|-------------------|
-------------------|-------------------|-------------------|-------------------|


  W                   W                   W                   W                 
-------------------|-------------------|-------------------|-------------------|
-------------------|-------------------|-------------------|-------------------|
-------------------|-------------------|-------------------|-------------------|
-------------------|-------------------|-------------------|-------------------|
-------------------|-------------------|-------------------|-------------------|
-------------------|-------------------|-------------------|-------------------|


  W                   W                   W                   W                 
-------------------|-------------------|-------------------|-------------------|
-------------------|-------------------|-------------------|-------------------|
-------------------|-------------------|-------------------|-------------------|
-------------------|-------------------|-------------------|-------------------|
-------------------|-------------------|-------------------|-------------------|
-------------------|-------------------|-------------------|-------------------|


  W                   W                   W                   W                 
-------------------|-------------------|-------------------|-------------------|
-------------------|-------------------|-------------------|-------------------|
-------------------|-------------------|-------------------|-------------------|
-------------------|-------------------|-------------------|-------------------|
-------------------|-------------------|-------------------|-------------------|
-------------------|-------------------|-------------------|-------------------|


  W                   W                   W                   W                 
-------------------|-------------------|-------------------|-------------------|
-------------------|-------------------|-------------------|-------------------|
-------------------|-------------------|-------------------|-------------------|
-------------------|-------------------|-------------------|-------------------|
-------------------|-------------------|-------------------|-------------------|
-------------------|-------------------|-------------------|-------------------|


  W                   W                   W                 
-------------------|-------------------|-------------------|
-------------------|-------------------|-------------------|
-------------------|-------------------|-------------------|
-------------------|-------------------|-------------------|
-------------------|-------------------|-------------------|
-------------------|-------------------|-------------------|


  W                  
-------------------||
-------------------||
-------------------||
-------------------||
-------------------||
-------------------||




Duration Legend
---------------
W - whole
H - half
Q - quarter
E - 8th
S - 16th
T - 32nd
X - 64th
. - note dotted
|-n-|  - n-tuplets


Tablature Legend
----------------
L - tied note
x - dead note
g - grace note
(n) - ghost note
> - accentuded note
NH - natural harmonic
AH - artificial harmonic
TH - tapped harmonic
SH - semi harmonic
PH - pitch harmonic
h - hammer on
p - pull off
b - bend
br - bendRelease
pb - preBend
pbr - preBendRelease
brb - bendReleaseBend
\n/ - tremolo bar dip
\n - tremolo bar dive
-/n - tremolo bar Release up
/n\ - tremolo bar inverted dip
/n - tremolo bar return
-\n - tremolo bar Release down
S - shift slide
s - legato slide
/ -  slide into from below or out of upwards
\ -  slide into from above or out of downwards
~ - vibrato
W - wide vibrato
tr - trill
TP - tremolo picking
T - tapping
S - slap
P - pop
< - fade in
^ - brush up
v - brush down
Suggest correction
Creating personal tab
Creating personal tab
You can edit any tab online and save it as your Personal.

You can edit, replace or remove any tab part or add personal notes – all changes will be seen only by you.

Personal tabs can be accessed anytime from any device, even offline.
Learn more »
Give kudos to tab author, rate the tab!
1 2 3 4 5
comments
print report bad tab
guest
You may want to rate the tab now too:
select rating
Wanna post a correction for this tab? Suggest correction