Oops, an error
Loading. Please wait.

Living Together tab

version 2
version 2

Whole song

Interactive

1,454 views 3 this week
no commentswrite comment
1 2 3 4 5
2 more votes to show rating
add to favorites
×
Save as Personal and add changes to this tab that will be seen only by you. Learn more ›
×
You can save this tab as Personal to edit and correct it or add notes. All changes will be seen only by you. Learn more »
launch autoscroll
font size
0
reset
how to read this tab
guitar tuner
edit
Autoscroll
slow
fast
+/-
esc
set tempo
stop
Difficulty
intermediate
so, most, if not all circa songs are written 1 half step down, i realized that after i 
it out, so...just pretend your guitar is tuned a half step down.
INTRO

Guitar 1
E -----------------------------------------------|
B --------8---8/9--------------------------------|
G --------------------8------8----------------10-|
D ----6------------------------------------------| x4
A --8---8---8-------------8-------------10-------|
E -----------------9----9-------9----11----11----|

Guitar 2
E ----------------------------|
B ----8b(full step)-12-12-13--|
G ----------------------------|
D ----------------------------| x2
A ----------------------------|
E ----------------------------|

E ------------------------------------------------|
B ---8b(full step)--7/9-9-------------------------|
G ------------------------------5-4----------5-4--|
D ----------------------------7-----7-5--5/7------|
A ------------------------------------------------|
E ------------------------------------------------|

VERSE

Guitar 1
E -----------------------------------------------|
B --------8---8/9--------------------------------|
G --------------------8------8----------------10-|
D ----6------------------------------------------| x2
A --8---8---8-------------8-------------10-------|
E -----------------9----9-------9----11----11----|

Guitar 2

Guitar 1
E -----------------|
B ---7--10--8------|
G -----------------|
D -------------10--|
A -----------------|
E -----------------|

(2nd part of the verse is an organ progression with a couple 2 or 3 note guitar riffs 
top, I’m sure you can figure them out yourself)

CHORUS
(Guitar 1 just plays power chords and octaves, you can figure that out yourself too, 
follow the bass notes.)

Guitar 2
E -----------------------------------------------|
B -----------------------------------------------|
G --13-12p10h12--13-12p10h12--13-12p10h12-13/15--|
D -----------------------------------------------|
A -----------------------------------------------|
E -----------------------------------------------|

E ---------------------------------------|
B ---16b(full step)----------------------|
G ------------------13-12-12h13p12-------|
D ---------------------------------13----|
A ---------------------------------------|
E ---------------------------------------|

E ------------------------------------------|
B ------------------------------------------|
G --13-12p10h12--13-12p10h12--13/17--15-15--|
D ------------------------------------------|
A ------------------------------------------|
E ------------------------------------------|

E ---------------------------------------|
B ---16b(full step)----------------------|
G ------------------13-12-12h13p12-------|
D ---------------------------------13----|
A ---------------------------------------|
E ---------------------------------------|

Then guitar 1 plays this
E --------------------------------------------|
B --------------------------------------------|
G --------------------------------------------|
D -1h3p1-------------1h3p1--------------------|
A -------3-1---------------3-1-----3-3--------|
E -----------4-3-1-1-----------4-3------------|

E ----------------------------------------------------------------|
B ----------------------------------------------------------------|
G ---13-12-12-12\10-10-10\8-8-8--13-12p10h12--13-12p10h12--13/15--|
D ----------------------------------------------------------------|
A ----------------------------------------------------------------|
E ----------------------------------------------------------------|

While guitar 1 plays this
E --------------------------------|
B -------8-------8----------------|
G --8h10----8h10------------------|
D ----------------------6------6--|
A ------------------6h8----6h8----|
E --------------------------------|

VERSE

CHORUS

BREAKDOWN
(guitar 2 plays, basically, the same thing while guitar 1 plays octaves)

            
            
Suggest correction
Creating personal tab
Creating personal tab
You can edit any tab online and save it as your Personal.

You can edit, replace or remove any tab part or add personal notes – all changes will be seen only by you.

Personal tabs can be accessed anytime from any device, even offline.
Learn more »
Give kudos to tab author, rate the tab!
1 2 3 4 5
comments
print report bad tab
guest
Wanna post a correction for this tab? Suggest correction