Oops, an error
Loading. Please wait.

Mandala Tab

version 1
version 1

Intro

Whole song

4,305 views 1 this week
no commentswrite comment
1 2 3 4 5
x 6
add to favorites
launch autoscroll
font size
0
reset
how to read this tab
guitar tuner
Autoscroll
slow
fast
+/-
esc
set tempo
stop
Help us to improve Ultimate-Guitar.com Take our survey!
×
Author
Difficulty
novice
yet another for circa...

fuckin weird ass trippy pedal thing
(use full delay)

1st guitar

e|---3~-----------8~-----------|
b|----4~----------8~-----------|
g|-----5~---------8~-----------|   6x
d|-----------------------------|
a|-----------------------------|
e|-----------------------------|

2nd guitar

e|--------------8~----------|
b|--------------8~----------|
g|--------------8~----------| 3x
d|--------------------------|
a|--------------------------|
e|--------------------------|

e|------------1s/8----------|
b|----------------8s\0------|
g|--------------------------|
d|--------------------------|
a|--------------------------|
e|--------------------------|


peace, love, anthony green, and everything in between.
Suggest correction
comments
print report bad tab
guest
You may want to rate the tab now too:
select rating
Wanna post a correction for this tab? Suggest correction