Oops, an error
Loading. Please wait.

Through The Desert Alone bass

version 1
version 1

Whole song

Interactive

2,086 views 1 this week
1 commentread comment
1 2 3 4 5
1 last vote to show rating
add to favorites
×
Save as Personal and add changes to this tab that will be seen only by you. Learn more ›
×
You can save this tab as Personal to edit and correct it or add notes. All changes will be seen only by you. Learn more »
launch autoscroll
font size
0
reset
guitar tuner
edit
Autoscroll
slow
fast
+/-
esc
set tempo
stop
Author
-------------------------------------------------------------------------------
		 Through the Desert Alone - Circa Survive
-------------------------------------------------------------------------------

 Tabbed by:dvanwyk
 Email:dustinvanwyk@yahoo.com

 Tuning:Drop D


 Intro x2
G|--------------------------------------------------|
D|--------------------------------------------------|
A|-----------------3h55555555555555555555-/888------|
D|5h777777777777777---------------------------------|

 Pause

 Verse x2
G|-----------------------------------------|
D|-----------------------------------------|
A|----------------------------------3------|
D|7-7777-5h7-77-5h7-77-7-7-7777-5h7---7-5--|

G|-------------------------------------------|
D|-------------------------------------------|
A|-----------------------------3-55----------|
D|3-3333-2h3-33-2h3-33-5-55-55---------------|

 
 Chorus
G|---------------------------------------------|
D|---------------------------------------------|
A|3-3-3-3~--5~---------------------------------|
D|--------------777777-555555-333333333333-----|

G|-----------------------------------------|
D|-----------------------------------------|
A|----------------------------------3------|
D|7-7777-5h7-77-5h7-77-7-7-7777-5h7---7-5--|


 Verse x1

G|---------------------------------------------------------------------------|
D|---------------------------------------------------------------------------|
A|---------------------------5-5-5-5~-8-8-8-8~-5-5-5-5~----------------------|
D|3-3-3-3~-7-7-7-7~-5-5-5-5~----------------------------7-7-7-7~-5-5-5-5~----|

G|-----------------------------------------|
D|-----------------------------------------|
A|----------------------------------3------|
D|7-7777-5h7-77-5h7-77-7-7-7777-5h7---7-5--|

G|-------------------------------------|
D|-------------------------------------|
A|-------------------------------------|
D|3-3333-2h3-33-2h3-33-5-55-55~--------|


 Bridge x1
G|----------------------------|
D|----------------------------|
A|----------------------------|
D|777777777777777777777777----|

 x2
G|-----------------------------------------------------|
D|-----------------------------------------------------|
A|-----------------------------------------------------|
D|777777777777777777777777-333333333333-55555555555----|

G|----------------------------|
D|----------------------------|
A|----------------------------|
D|777777777777777777777777----|


G|-----------------------------------------|
D|-----------------------------------------|
A|-----------------------------------------|
D|77-5h7--77-5h7--77-5h7-77-5/-17171717----|


 Chorus x2

 Outro
G|-------------------------------|
D|-------------------------------|
A|-------------------------------|
D|7~----5~----3~-----------------|

            
            
Suggest correction
Creating personal tab
Creating personal tab
You can edit any tab online and save it as your Personal.

You can edit, replace or remove any tab part or add personal notes – all changes will be seen only by you.

Personal tabs can be accessed anytime from any device, even offline.
Learn more »
Give kudos to tab author, rate the tab!
1 2 3 4 5
comments
print report bad tab
1 comment total.
0 reply
SM64Dude 53 Oct 11, 2016 06:06 PM

A good and accurate tab, but the rhythms are kind of poorly written and confusing.

guest
You may want to rate the tab now too:
select rating
Wanna post a correction for this tab? Suggest correction