Oops, an error
Loading. Please wait.

Fossils tab

version 2
version 2

Whole song

852 views 9 this week
no commentswrite comment
1 2 3 4 5
2 more votes to show rating
add to favorites
×
Save as Personal and add changes to this tab that will be seen only by you. Learn more ›
×
You can save this tab as Personal to edit and correct it or add notes. All changes will be seen only by you. Learn more »
launch autoscroll
font size
0
reset
how to read this tab
guitar tuner
edit
Autoscroll
slow
fast
+/-
esc
set tempo
stop
Author
Intro

Guitar 1:
e|------------------------------------------------------------------------------------|
B|------------------------------------------------------------------------------------|
G|-9-7-9------7--9-7-9------7--9-7-9------7--9-7-9------7--9-7-9------7--9-7-9---10-9-|
D|---------10------------10------------10------------10------------10-----------------|
A|------------------------------------------------------------------------------------|
E|------------------------------------------------------------------------------------|
 |
 | Guitar 2:
e|-----------------------------3-3-X-3--3-X-X------5-5-X-3--3-X-X-5-5-X-7--7-X-X-|
B|-----------------------------5-5-X-5--5-X-X------6-6-X-5--5-X-X-6-6-X-8--8-X-X-|
G|-----------------------------5-5-X-5--5-X-X------7-7-X-5--5-X-X-7-7-X-9--9-X-X-|
D|-----------------------------5-5-X-5--5-X-X------7-7-X-5--5-X-X-7-7-X-9--9-X-X-|
A|-----------------------------3-5-X-3--3-X-X-(x2)-5-5-X-3--3-X-X-5-5-X-7--7-X-X-|
E|-------------------------------------------------------------------------------| *play twice



Verse

*Guitar 2 plays intro chords four times

Never lose my sight 
Circumstances change I'll an-

Guitar 1:
e|----------------------------|
B|----------------------------|
G|-9-7-9------7--9-7-9---10-9-|
D|---------10-----------------|
A|----------------------------|
E|----------------------------|

-other place to hide           
Digging holes in fields
Telling me the truth I need the

Guitar 1:
e|----------------------------|
B|----------------------------|
G|-9-7-9------7--9-7-9--------|
D|---------10-----------------|
A|----------------------------|
E|----------------------------|

Fossils to be real



Chorus

Guitar 1:
e|----------------------------10--10--10--10--12--12--12--12--13--13--12--12-|
B|-10-13-10-13-10-13-10-13-10---10--10--10--10--10--10--10--10--10--10--10---|
G|---------------------------------------------------------------------------|
D|---------------------------------------------------------------------------|
A|---------------------------------------------------------------------------|
E|---------------------------------------------------------------------------| 
 |
 | Guitar 2:
e|-8--------10-------12-------12-------|
B|-10-------10-------13-------11-------|
G|-9--------10-------14-------10-------|
D|-10-------12-------14-------12-------|
A|-8--(x16)-12-------12-(x16)-10-(x16)-|
E|----------10-(x16)-------------------|

*Play both parts twice

The one day I want something I just can't get
I'm a long way from home
I'm a long way from home
The one day I want something I just can't get
I'm a long way from home
I'm a long way from home

Guitar 2:
e|-3-3-X-3--3-X-X------5-5-X-3--3-X-X-5-5-X-7-|
B|-5-5-X-5--5-X-X------6-6-X-5--5-X-X-6-6-X-8-|
G|-5-5-X-5--5-X-X------7-7-X-5--5-X-X-7-7-X-9-|
D|-5-5-X-5--5-X-X------7-7-X-5--5-X-X-7-7-X-9-|
A|-3-5-X-3--3-X-X-(x2)-5-5-X-3--3-X-X-5-5-X-7-|
E|--------------------------------------------|



Verse 2

*Guitar 2 plays intro chords four times

Taken back by me
Believing nothing feels like such a

Guitar 1:
e|----------------------------|
B|----------------------------|
G|-9-7-9------7--9-7-9---10-9-|
D|---------10-----------------|
A|----------------------------|
E|----------------------------|

Hollow way to be

Guitar 1: (Palm muted)
e|---------------------------------|
B|---------------------------------|
G|-9-9-9-9-9-9-9-9-9-9-9-9-9-9-9-9-|
D|---------------------------------|
A|---------------------------------|
E|---------------------------------|

I can try to hide

Guitar 1: (Palm muted)
e|---------------------------------|
B|---------------------------------|
G|-7-7-7-7-7-7-7-7-7-7-7-7-7-7-7-7-|
D|---------------------------------|
A|---------------------------------|
E|---------------------------------|

Everything I stand for but I

Guitar 1: (Palm muted)
e|---------------------------------|
B|---------------------------------|
G|-9-9-9-9-9-9-9-9-9-9-9-9-9-9-9-9-|
D|---------------------------------|
A|---------------------------------|
E|---------------------------------|

Feel it on the side

Guitar 1:
e|---------------------------------------------------------|
B|------------------------------------------------------8--|
G|-7-7-7-7-7-7-7-7-9-9-9-9-10-10-10-10-9--7-9------7--9--9-|
D|----------------------------------------------10---------|
A|---------------------------------------------------------|
E|---------------------------------------------------------|



Chorus

Guitar 1:
e|---------------------------10--10--10--10--12--12--12--12--13--13--12--12-|
B|-10-13-10-13-10-13-10-13-10--10--10--10--10--10--10--10--10--10--10--10---|
G|--------------------------------------------------------------------------|
D|--------------------------------------------------------------------------|
A|--------------------------------------------------------------------------|
E|--------------------------------------------------------------------------| 
 |
 | Guitar 2:
e|-8--------10-------12-------12-------|
B|-10-------10-------13-------11-------|
G|-9--------10-------14-------10-------|
D|-10-------12-------14-------12-------|
A|-8--(x16)-12-------12-(x16)-10-(x16)-|
E|----------10-(x16)-------------------|

*Play both parts twice

The one day I want something I just can't get
I'm a long way from home
I'm a long way from home
The one day I want something I just can't get
I'm a long way from home
I'm a long way from home



Instrumental

Guitar 1:
e|-3--1--------------3--1--------------3--1--------------3--1--0--0--|
B|-------5-5-5b6-----------5-5-5b6-3---------5-5-5b6-----------------|
G|---------------2-----------------------------------2---------------|
D|-------------------------------------------------------------------|
A|-------------------------------------------------------------------|
E|-------------------------------------------------------------------|
 |
 | Guitar 2:
e|-3-3-X-3--3-X-X------5-5-X-3--3-X-X-5-5-X-7--7-X-X-|
B|-5-5-X-5--5-X-X------6-6-X-5--5-X-X-6-6-X-8--8-X-X-|
G|-5-5-X-5--5-X-X------7-7-X-5--5-X-X-7-7-X-9--9-X-X-|
D|-5-5-X-5--5-X-X------7-7-X-5--5-X-X-7-7-X-9--9-X-X-|
A|-3-5-X-3--3-X-X-(x2)-5-5-X-3--3-X-X-5-5-X-7--7-X-X-|
E|---------------------------------------------------| *play twice


Guitar 1:
e|-----------------------------------------15--15--15--15--13--13--13--13-----------------|
B|---15--15--15--15--13--13--13--13-(x2)-----------------------------------15--15--15--15-|
G|-14--14--14--14--14--14--14--14--------14--14--14--14--14--14--14--14--14--14--14--14---|
D|----------------------------------------------------------------------------------------|
A|----------------------------------------------------------------------------------------|
E|----------------------------------------------------------------------------------------|
 |
 | Guitar 2:
e|----------------------------------3------------------------------------3-|
B|----------------------------------5------------------------------------5-|
G|----------------------------------5------------------------------------5-|
D|----------------------------------5------------------------------------5-|
A|----------------------------------3------------------------------------3-|
E|-------------------------------------------------------------------------|



Chorus

Guitar 1:
e|---------------------------10--10--10--10--12--12--12--12--13--13--12--12-|
B|-10-13-10-13-10-13-10-13-10--10--10--10--10--10--10--10--10--10--10--10---|
G|--------------------------------------------------------------------------|
D|--------------------------------------------------------------------------|
A|--------------------------------------------------------------------------|
E|--------------------------------------------------------------------------| 
 |
 | Guitar 2:
e|-8--------10-------12-------12-------|
B|-10-------10-------13-------11-------|
G|-9--------10-------14-------10-------|
D|-10-------12-------14-------12-------|
A|-8--(x16)-12-------12-(x16)-10-(x16)-|
E|----------10-(x16)-------------------|

*Play both parts twice

The one day I want something I just can't get
I'm a long way from home
I'm a long way from home
The one day I want something I just can't get
I'm a long way from home
I'm a long way from home


            
            
Suggest correction
Creating personal tab
Creating personal tab
You can edit any tab online and save it as your Personal.

You can edit, replace or remove any tab part or add personal notes – all changes will be seen only by you.

Personal tabs can be accessed anytime from any device, even offline.
Learn more »
Give kudos to tab author, rate the tab!
1 2 3 4 5
comments
print report bad tab
guest
You may want to rate the tab now too:
select rating
Wanna post a correction for this tab? Suggest correction