Oops, an error
Loading. Please wait.

My Love tab

562 views 6 this week
no commentswrite comment
1 2 3 4 5
2 more votes to show rating
add to favorites
×
Save as Personal and add changes to this tab that will be seen only by you. Learn more ›
×
You can save this tab as Personal to edit and correct it or add notes. All changes will be seen only by you. Learn more »
launch autoscroll
font size
0
reset
how to read this tab
guitar tuner
edit
Autoscroll
slow
fast
+/-
esc
set tempo
stop
Author
[Intro]

(Guitar 1)

e|-11-11-11-11-11-11-11-11-11-11-11-11-14-14-14-14-|
B|-12-12-12-12-12-12-12-12-12-12-12-12-12-12-12-12-|
G|-11-11-11-11-11-11-11-11-11-11-11-11-11-11-11-11-| (Played once)
D|-------------------------------------------------|
A|-------------------------------------------------|
E|-------------------------------------------------|

e|-11-11-11-11-14-14-14-14-11-11-11-11-14-14-14-14-|
B|-12-12-12-12-12-12-12-12-12-12-12-12-12-12-12-12-|
G|-11-11-11-11-11-11-11-11-11-11-11-11-11-11-11-11-| x4
D|-------------------------------------------------|
A|-------------------------------------------------|
E|-------------------------------------------------|

(Guitar 2)

e|-----------------------------------------------------------------------------------------|
B|-----------------------------------------------------------------------------------------|
G|-8-8-8-8-8-8-8-8-8--8--8--8--8--8--8--8--11-11-11-11-11-11-11-11-11-11-11-11-11-11-11-11-| x2
D|-9-9-9-9-9-9-9-9-9--9--9--9--9--9--9--9--8--8--8--8--8--8--8--8--8--8--8--8--8--8--8--8--|
A|-----------------11-11-11-11-11-11-11-11-9--9--9--9--9--9--9--9--9--9--9--9--9--9--9--9--|
E|-9-9-9-9-9-9-9-9-------------------------------------------------------------------------|

(Bass)

G|-----------------------------------------------------------------------------------|
D|-----------------------------------------------------------------------------------| x2
A|---------------------11-11-11-11-11-11-11-11-11-11-9-9-9-9-9-9-9-9-9-9-9-9-9-9-9-9-|
E|-9-9-9-9-9-9-9-9-9-9---------------------------------------------------------------|


[Verse 1]

(Guitar 1)

e|-11-11-11-11-14-14-14-14-11-11-11-11-14-14-14-14-|
B|-12-12-12-12-12-12-12-12-12-12-12-12-12-12-12-12-|
G|-11-11-11-11-11-11-11-11-11-11-11-11-11-11-11-11-|  x8
D|-------------------------------------------------|
A|-------------------------------------------------|
E|-------------------------------------------------|

(Guitar 2)

e|-------------------------------------------------|
B|-------------------------------------------------|
G|-8-----------------------8--------------------11-| x2
D|-9-----------------------9--------------------8--|
A|-------------------------11-------------------9--|
E|-9-----------------------------------------------|

e|-----------------------------------------------------------------------------------------|
B|-----------------------------------------------------------------------------------------|
G|-8-8-8-8-8-8-8-8-8--8--8--8--8--8--8--8--11-11-11-11-11-11-11-11-11-11-11-11-11-11-11-11-| x2
D|-9-9-9-9-9-9-9-9-9--9--9--9--9--9--9--9--8--8--8--8--8--8--8--8--8--8--8--8--8--8--8--8--|
A|-----------------11-11-11-11-11-11-11-11-9--9--9--9--9--9--9--9--9--9--9--9--9--9--9--9--|
E|-9-9-9-9-9-9-9-9-------------------------------------------------------------------------|

(Bass)

G|---------------------------------------------------|
D|-------------------------13-----------9----------9-|  x4
A|----------11--11-11-13-11-----9-9-11-9---9-9-11-9--|
E|-9-9-11-9------------------------------------------|


[Chorus]

(Guitar 1)

e|-11-11-11-11-11-11-11-11-11-11-11-11-11-11-11-11-12-12-12-12-12-12-12-12-12-12-12-12-12-12-12-12-14-14-14--|
B|-12-12-12-12-12-12-12-12-12-12-12-12-12-12-12-12-12-12-12-12-12-12-12-12-12-12-12-12-12-12-12-12-12-12-12--|
G|-11-11-11-11-11-11-11-11-11-11-11-11-11-11-11-11-11-11-11-11-11-11-11-11-11-11-11-11-11-11-11-11-11-11-11--|
D|-----------------------------------------------------------------------------------------------------------|
A|-----------------------------------------------------------------------------------------------------------|
E|-----------------------------------------------------------------------------------------------------------|

e|-14-14-14-14-14-14-14-14-14-14-14-14-12-12-12-12-12-12-12-12-12-12-12-12-12-12-12-12-|
B|-12-12-12-12-12-12-12-12-12-12-12-12-12-12-12-12-12-12-12-12-12-12-12-12-12-12-12-12-|
G|-12-12-12-12-12-12-12-12-12-12-12-12-12-12-12-12-12-12-12-12-12-12-12-12-12-12-12-12-|
D|-------------------------------------------------------------------------------------|
A|-------------------------------------------------------------------------------------|
E|-------------------------------------------------------------------------------------|

(Guitar 2)

e|-----------------------------------------------------------------------------------------------------------|
B|-----------------------------------------------------------------------------------------------------------|
G|---------------------------------9-9-9-9-9-9-9-9-9-9-9-9-9-9-9-9-11-11-11-11-11-11-11-11-11-11-11-11-11-11-|
D|-9-9-9-9-9-9-9-9-9-9-9-9-9-9-9-9-9-9-9-9-9-9-9-9-9-9-9-9-9-9-9-9-8--8--8--8--8--8--8--8--8--8--8--8--8--8--|
A|-9-9-9-9-9-9-9-9-9-9-9-9-9-9-9-9-7-7-7-7-7-7-7-7-7-7-7-7-7-7-7-7-9--9--9--9--9--9--9--9--9--9--9--9--9--9--|
E|-7-7-7-7-7-7-7-7-7-7-7-7-7-7-7-7---------------------------------------------------------------------------|

e|---------------------------------------|
B|---------------------------------------|
G|-11-11-9-9-9-9-9-9-9-9-9-9-9-9-9-9-9-9-| x2
D|-8--8--9-9-9-9-9-9-9-9-9-9-9-9-9-9-9-9-|
A|-9--9--7-7-7-7-7-7-7-7-7-7-7-7-7-7-7-7-|
E|---------------------------------------|

(Bass)

G|----------------------------------------------------------------------------------------------------------|
D|----------------------------------------------------------------------------------------------------------|
A|---------------------------------7-7-7-7-7-7-7-7-7-7-7-7-7-7-7-7-9-9-9-9-9-9-9-9-9-9-9-9-9-9-9-9-7-7-7-7--|
E|-7-7-7-7-7-7-7-7-7-7-7-7-7-7-7-7--------------------------------------------------------------------------|

G|-------------------------|
D|-------------------------|x2
A|-7-7-7-7-7-7-7-7-7-7-7-7-|
E|-------------------------|


[Verse 2]

(Guitar 1)

e|-11-11-11-11-14-14-14-14-11-11-11-11-14-14-14-14-|
B|-12-12-12-12-12-12-12-12-12-12-12-12-12-12-12-12-|
G|-11-11-11-11-11-11-11-11-11-11-11-11-11-11-11-11-| (Comes in after first 2 lines then  played x2)
D|-------------------------------------------------|
A|-------------------------------------------------|
E|-------------------------------------------------|

(Guitar 2)

e|------------------------------------------------------------------------------------11--------------------|
B|-------------------------9----------------------------------------------------------12-----------------11-|
G|-8--------------------------------------------11----------------8-------------------13-----------------11-|
D|-9-----------------------9--------------------8-----------------9-------------------13-----------------11-|
A|-------------------------11-------------------9-------------------------------------11-----------------9--|
E|-9--------------------------------------------------------------9-----------------------------------------|

e|-----------------------------------------------------------------------------------------|
B|-----------------------------------------------------------------------------------------|
G|-8-8-8-8-8-8-8-8-8--8--8--8--8--8--8--8--11-11-11-11-11-11-11-11-11-11-11-11-11-11-11-11-| x2
D|-9-9-9-9-9-9-9-9-9--9--9--9--9--9--9--9--8--8--8--8--8--8--8--8--8--8--8--8--8--8--8--8--|
A|-----------------11-11-11-11-11-11-11-11-9--9--9--9--9--9--9--9--9--9--9--9--9--9--9--9--|
E|-9-9-9-9-9-9-9-9-------------------------------------------------------------------------|

(Bass)

G|---------------------------------------------------|
D|-------------------------13-----------9----------9-| x4
A|----------11--11-11-13-11-----9-9-11-9---9-9-11-9--|
E|-9-9-11-9------------------------------------------|


[Interlude]

(Guitar 1)

e|-11--------11--------11--------14-|
B|-12--------12--------12--------12-|
G|-11--------11--------11--------11-| x2
D|----------------------------------|
A|----------------------------------|
E|----------------------------------|

e|------------------------------------------------------------------------------|
B|-4-4-4-4--4-4-4-4--2-2-2-2-2-4-2-2--4-4-4-4--4-4-4-4--11-11-11-11-11-11-11-11-|
G|-4-4-4-4--4-4-4-4--3-3-3-3-3-4-3-3--4-4-4-4--4-4-4-4--11-11-11-11-11-11-11-11-|
D|-4-4-4-4--6-6-6-6--4-4-4-4-4-6-6-6--4-4-4-4--6-6-6-6--11-11-11-11-11-11-11-11-|
A|------------------------------------------------------------------------------|
E|------------------------------------------------------------------------------|

(Guitar 2)

e|--------------------------------|
B|--------------------------------|
G|----------8--------8---------11-| x2  Then strum the verse chords.
D|-9--------9--------9---------8--|
A|-9-----------------11--------9--|
E|-7--------9---------------------|


[Bridge]

(Guitar 1 and 2 play chorus parts w/ single strums using thumb)

(Bass)

G|------------------------|
D|------------------------|
A|----------------9-----9-|
E|-7-----0/12-------------|


[Outro]

(Guitar 1)

e|--------------------------------------------------|     Finish on: e|-11-|
B|--------------------------------------------------| x4             B|-12-|
G|-8--8--8--8--8--8--8--8--8--8--8--8--8--8--8--8---|                G|-11-|
D|--11-11-11-11-11-11-11-11-11-11-11-11-11-11-11-11-|                D|----|
A|--------------------------------------------------|                A|----|
E|--------------------------------------------------|                E|----|


(Guitar 2)

e|-7--7--7--7--7--7--7--7--7--7--7--7--7--7--7--7----------------------------------------------------------|
B|-7--7--7--7--7--7--7--7--7--7--7--7--7--7--7--7----------------------------------------------------------|
G|-8--8--8--8--8--8--8--8--8--8--8--8--8--8--8--8--9-9-9-9-9-9-9-9-9-9-9-9-9-9-9-9-11-11-11-11-11-11-11-11-|
D|-11-11-11-11-11-11-11-11-11-11-11-11-11-11-11-11-9-9-9-9-9-9-9-9-9-9-9-9-9-9-9-9-8--8--8--8--8--8--8--8--|
A|-9--9--9--9--9--9--9--9--9--9--9--9--9--9--9--9--7-7-7-7-7-7-7-7-7-7-7-7-7-7-7-7-9--9--9--9--9--9--9--9--|
E|-7--7--7--7--7--7--7--7--7--7--7--7--7--7--7--7----------------------------------------------------------|

e|------------------------------------------------------|      Finish on:  e|---|
B|----------------------9-9-9-9-9-9-9-9-9-9-9-9-9-9-9-9-| x2               B|---|
G|-11-11-11-11-11-11-11-9-9-9-9-9-9-9-9-9-9-9-9-9-9-9-9-|                  G|-8-|
D|-8--8--8--8--8--8--8--9-9-9-9-9-9-9-9-9-9-9-9-9-9-9-9-|                  D|-9-|
A|-9--9--9--9--9--9--9--7-7-7-7-7-7-7-7-7-7-7-7-7-7-7-7-|                  A|---|
E|------------------------------------------------------|                  E|-9-|

(Bass)

G|----------------------------------------------------------------------------------------------------------|
D|----------------------------------------------------------------------------------------------------------|
A|---------------------------------------------------------------9-9-9-9-9-9-9-9-9-9-9-9-9-9-9-9-11-11-11---|
E|-7-7-7-7-7-7-7-7-7-7-7-7-7-7-7-7-12-12-12-12-12-12-12-12-12-12--------------------------------------------|

G|------------------------------------|    Finish on: G|---|
D|------------------------------------|x2             D|---|
A|-11-11-11-11-13-13-13-13-13-13-13-13|               A|---|
E|------------------------------------|               E|-9-|



Song Order:

[Intro]
[Verse 1]
[Chorus]
[Verse 2]
[Chorus]
[Interlude]
[Bridge]
[Outro]


Lyrics:


[Verse 1]
I know it's not enough to be with you
I'm clinging to the walls you can see through
You need to reel in your tongue
Cos' I know it's not enough to stay young

[Chorus]

And I'm giving up My Love, My Love to something else x2

Verse 2
You are like the waves that pull me
Underneath for days, twisting
But I need to reel in some air
Cos' I know it's not enough to get there


[Interlude]

I can't speak for anyone but myself x2
I know it's not enough to be with you x2 To be with you...


[Bridge]

And I'm giving up My Love, My Love to something else


[Outro]

Oh---My Love, My Love to something else.

            
            
Suggest correction
Creating personal tab
Creating personal tab
You can edit any tab online and save it as your Personal.

You can edit, replace or remove any tab part or add personal notes – all changes will be seen only by you.

Personal tabs can be accessed anytime from any device, even offline.
Learn more »
Give kudos to tab author, rate the tab!
1 2 3 4 5
comments
print report bad tab
guest
You may want to rate the tab now too:
select rating
Wanna post a correction for this tab? Suggest correction