Oops, an error
Loading. Please wait.

Old Friends tab

598 views 3 this week
no commentswrite comment
1 2 3 4 5
x 3
add to favorites
×
Save as Personal and add changes to this tab that will be seen only by you. Learn more ›
×
You can save this tab as Personal to edit and correct it or add notes. All changes will be seen only by you. Learn more »
launch autoscroll
font size
0
reset
how to read this tab
guitar tuner
edit
Autoscroll
slow
fast
+/-
esc
set tempo
stop
Author
Difficulty
About this tab version
All the tabs in the song, simple and easy but also nice sounding. No capo, similar sounding to song. Was this info helpful? Yes No
No Capo

[Intro]                                                                                 
e|-----0--4--2---0------0--4---2---0-|-7--5--4--2--4----7--5--4--2---0-|
B|--2----------------2---------------|---------------------------------|
G|-----------------------------------|---------------------------------|
D|-----------------------------------|---------------------------------|
A|-----------------------------------|---------------------------------|
E|-----------------------------------|---------------------------------|

[Verse]
I can't believe I'm still up,                                    
e|---------------------------------------------------------------|
B|--2---2--2-0---------------------------------------------------|
G|---------------------------------------------------------------|
D|---------------------------------------------------------------|
A|---------------------------------------------------------------|
E|---------------------------------------------------------------|

I can't believe this conversation,Is still going.                                
e|------------0-2-5-2-0------------------------------------------|
B|--2--2-0-------------2-----------------------------------------|
G|---------------------------------------------------------------|
D|---------------------------------------------------------------|
A|---------------------------------------------------------------|
E|---------------------------------------------------------------|

I need to really grow up,
e|---------------------------------------------------------------|
B|--2---2--2-0---------------------------------------------------|
G|---------------------------------------------------------------|
D|---------------------------------------------------------------|
A|---------------------------------------------------------------|
E|---------------------------------------------------------------|

I drank so much I can't see straight son,
e|---7-7-7-2--------------9-9-9-7-5-4-------|
B|-----------2------------------------------|
G|------------------------------------------|
D|------------------------------------------|
A|------------------------------------------|
E|------------------------------------------|

What am I doing?
e|--2-4------------------------|
B|-----------------------------|
G|-----------------------------|
D|-----------------------------|
A|-----------------------------|
E|-----------------------------|

[Pre-Chorus]
And honey do you mind if I go out?
e|------------------4-4-4-4-4-4-4-4------------------------------|
B|--0-0-0-0-2-2-3-3-5-5-5-5-5-5-5-5------------------------------|
G|---------------------------------------------------------------|
D|---------------------------------------------------------------|
A|---------------------------------------------------------------|
E|---------------------------------------------------------------|

And honey do you mind if I lose myself?
e|----7-7-7-7-7-7-7-7--5-5-5-5-5-5-5-5---------------------------|
B|----9-9-9-9-9-9-9-9--9-9-9-9-9-9-9-9---------------------------|
G|---------------------------------------------------------------|
D|---------------------------------------------------------------|
A|---------------------------------------------------------------|
E|---------------------------------------------------------------|

And honey do you mind if I blow off,some steam?
e|-------------------4-4-4-4-4-4-4-4-----------------------------|
B|--0-0-0-0-2-2-3-3--5-5-5-5-5-5-5-5-----------------------------|
G|---------------------------------------------------------------|
D|---------------------------------------------------------------|
A|---------------------------------------------------------------|
E|---------------------------------------------------------------|

[Chorus] (x2)
I wanna talk s**t with my old friends.                           
e|--5-5-5-5-5-5-5-5----|-7-7-7-7-7-7-7-7-------------------------|
B|--5-5-5-5-5-5-5-5----|-7-7-7-7-7-7-7-7-------------------------|
G|--6-6-6-6-6-6-6-6----|-8-8-8-8-8-8-8-8-------------------------|
D|---------------------------------------------------------------|
A|---------------------------------------------------------------|
E|---------------------------------------------------------------|

I wanna get drunk with my old friends.                           
e|--9-9-9-9-9-9-9-9----|-7-7-7-7-7-7-7-7-7-----------|
B|--8-8-8-8-8-8-8-8----|-7-7-7-7-7-7-7-7-7-----------|
G|--9-9-9-9-9-9-9-9----|-8-8-8-8-8-8-8-8-8-----------|
D|---------------------|-----------------------------|
A|---------------------|-----------------------------|
E|---------------------|-----------------------------|

[Instrumental]
e|-----0--4--2---0------0--4---2---0--|--7--5--4--2--4----7--5--4--2---0---|
B|--2----------------2----------------|------------------------------------|
G|------------------------------------|------------------------------------|
D|------------------------------------|------------------------------------|
A|------------------------------------|------------------------------------|
E|------------------------------------|------------------------------------|

[Verse] 
I can't believe I'm still up,
e|---------------------------------------------------------------|
B|--2---2--2-0---------------------------------------------------|
G|---------------------------------------------------------------|
D|---------------------------------------------------------------|
A|---------------------------------------------------------------|
E|---------------------------------------------------------------| 

Walking to the petrol station,at 5 in the morning. 
e|---------------------------------------------------------------|
B|--2--2-0-------------------------------------------------------|
G|---------------------------------------------------------------|
D|---------------------------------------------------------------|
A|---------------------------------------------------------------|
E|---------------------------------------------------------------|

The streelights're clocking off soon, 
e|---------------------------------------------------------------|
B|--2---2--2-0---------------------------------------------------|
G|---------------------------------------------------------------|
D|---------------------------------------------------------------|
A|---------------------------------------------------------------|
E|---------------------------------------------------------------|

I wish that I'd been given warning,Of what I was doing.             
e|------------0-2-5-2-0------------------------------------------|
B|--2--2-0-------------2-----------------------------------------|
G|---------------------------------------------------------------|
D|---------------------------------------------------------------|
A|---------------------------------------------------------------|
E|---------------------------------------------------------------|

[Pre-Chorus]
And honey do you mind if I go out?
e|------------------4-4-4-4-4-4-4-4------------------------------|
B|--0-0-0-0-2-2-3-3-5-5-5-5-5-5-5-5------------------------------|
G|---------------------------------------------------------------|
D|---------------------------------------------------------------|
A|---------------------------------------------------------------|
E|---------------------------------------------------------------|

And honey do you mind if I lose myself?
e|----7-7-7-7-7-7-7-7--5-5-5-5-5-5-5-5---------------------------|
B|----9-9-9-9-9-9-9-9--9-9-9-9-9-9-9-9---------------------------|
G|---------------------------------------------------------------|
D|---------------------------------------------------------------|
A|---------------------------------------------------------------|
E|---------------------------------------------------------------|

And honey do you mind if I blow off,some steam?
e|-------------------4-4-4-4-4-4-4-4-----------------------------|
B|--0-0-0-0-2-2-3-3--5-5-5-5-5-5-5-5-----------------------------|
G|---------------------------------------------------------------|
D|---------------------------------------------------------------|
A|---------------------------------------------------------------|
E|---------------------------------------------------------------|

[Chorus]
I wanna talk s**t with my old friends.                           
e|--5-5-5-5-5-5-5-5---7-7-7-7-7-7-7-7----------------------------|
B|--5-5-5-5-5-5-5-5---7-7-7-7-7-7-7-7----------------------------|
G|--6-6-6-6-6-6-6-6---8-8-8-8-8-8-8-8----------------------------|
D|---------------------------------------------------------------|
A|---------------------------------------------------------------|
E|---------------------------------------------------------------|

I wanna get drunk with my old friends.                           
e|--9-9-9-9-9-9-9-9----|-7-7-7-7-7-7-7-7-7-----------|
B|--8-8-8-8-8-8-8-8----|-7-7-7-7-7-7-7-7-7-----------|
G|--9-9-9-9-9-9-9-9----|-8-8-8-8-8-8-8-8-8-----------|
D|---------------------|-----------------------------|
A|---------------------|-----------------------------|
E|---------------------|-----------------------------|

I wanna get high with my old friends.                            
e|--5-5-5-5-5-5-5-5----|-7-7-7-7-7-7-7-7-------------|
B|--5-5-5-5-5-5-5-5----|-7-7-7-7-7-7-7-7-------------|
G|--6-6-6-6-6-6-6-6----|-8-8-8-8-8-8-8-8-------------|
D|---------------------|-----------------------------|
A|---------------------|-----------------------------|
E|---------------------|-----------------------------|

I wanna read the news with my old friends.                       
e|--9-9-9-9-9-9-9-9----|-7-7-7-7-7-7-7-7-7-----------|
B|--8-8-8-8-8-8-8-8----|-7-7-7-7-7-7-7-7-7-----------|
G|--9-9-9-9-9-9-9-9----|-8-8-8-8-8-8-8-8-8-----------|
D|---------------------|-----------------------------|
A|---------------------|-----------------------------|
E|---------------------|-----------------------------|

[Outro]
(can play one octave higher to sound like song)
e|-----0--4--2---0------0--4---2---0-|----0--4--2---0-----------------------|
B|--2----------------2---------------|--2--------------3-2-0-2-0------------|
G|-----------------------------------|--------------------------2-----------|
D|-----------------------------------|--------------------------------------|
A|-----------------------------------|--------------------------------------|
E|-----------------------------------|--------------------------------------|

            
            
Suggest correction
Creating personal tab
Creating personal tab
You can edit any tab online and save it as your Personal.

You can edit, replace or remove any tab part or add personal notes – all changes will be seen only by you.

Personal tabs can be accessed anytime from any device, even offline.
Learn more »
Give kudos to tab author, rate the tab!
1 2 3 4 5
comments
print report bad tab
guest
You may want to rate the tab now too:
select rating
Wanna post a correction for this tab? Suggest correction