Oops, an error
Loading. Please wait.

So Long tab

946 views 3 this week
no commentswrite comment
1 2 3 4 5
x 3
add to favorites
×
Save as Personal and add changes to this tab that will be seen only by you. Learn more ›
×
You can save this tab as Personal to edit and correct it or add notes. All changes will be seen only by you. Learn more »
launch autoscroll
font size
0
reset
how to read this tab
guitar tuner
edit
Autoscroll
slow
fast
+/-
esc
set tempo
stop
Author
So Long - Circa Waves

Guitar 1 - Kieran Shudall
Guitar 2 - Joe Falconer


[Intro/Interlude]

(Guitar 1)

e|-x-x-x-x--------------------------------------------------------------------------------------------------|
B|-x-x-x-x--------------------------------------------------------------------------------------------------|
G|-x-x-x-x--9-9-9-9-9-9-9-9-11-11-11-11-11-11-11-11-13-13-13-13-13-13-13-13-14-14-14-14-14-14-14-14---------|
D|-x-x-x-x--6-6-6-6-6-6-6-6-7--7--7--7--7--7--7--7--9--9--9--9--9--9--9--9--11-11-11-11-11-11-11-11--9--9\0-|
A|-x-x-x-x--7-7-7-7-7-7-7-7-9--9--9--9--9--9--9--9--11-11-11-11-11-11-11-11-12-12-12-12-12-12-12-12--7--7\0-|
E|-x-x-x-x--0-0-0-0-0-0-0-0-0--0--0--0--0--0--0--0--0--0--0--0--0--0--0--0--0--0--0--0--0--0--0--0---0--0---|

(Guitar 2)

e|-x-x-x-x-------------------------------------------------------------------9--7-|
B|-x-x-x-x-------------------------------------------------------------------9--9-|
G|-x-x-x-x-------------------------------------------------------------------9--9-|
D|-x-x-x-x--2-2-2-2-2-2-2-2-4-4-4-4-4-4-4-4-6-6-6-6-6-6-6-6-7-7-7-7-7-7-7-7-------|
A|-x-x-x-x--2-2-2-2-2-2-2-2-----------------2-2-2-2-2-2-2-2-4-4-4-4-4-4-4-4-------|
E|-x-x-x-x--0-0-0-0-0-0-0-0-2-2-2-2-2-2-2-2-4-4-4-4-4-4-4-4-5-5-5-5-5-5-5-5-------|


[Verse]

(Guitar 1)

e|---------------------------|
B|---------------------------| x2
G|--9---9----9-9-9--9-9-9--9-|
D|--9---9----9-9-9--9-9-9--9-|
A|--7---7------------------7-|
E|--0---0----7-7-7--5-5-5--0-|

(Guitar 2)

e|-9---7----9-9-9--7-7-7--4-|
B|-9---9----9-9-9--9-9-9--5-| x2
G|-9---9----9-9-9--9-9-9--4-|
D|--------------------------|
A|--------------------------|
E|--------------------------|


[1st Pre-chorus]

(Guitar 1)

e|---------5--5-5-5--5-5-5--5-5-5--|
B|---------5--5-5-5--5-5-5--5-5-5--| x2
G|---------6--6-6-8--8-8-6--6-6-8--|
D|-9---9---7--7-7-7--7-7-7--7-7-7--|
A|-7---9---7--7-7-7--7-7-7--7-7-7--|
E|-9---7---5--5-5-5--5-5-5--5-5-5--|

(Guitar 2)

e|-9---7---5--5-5-7--7-7-5--5-5-7-|
B|-9---7---5--5-5-7--7-7-5--5-5-7-| x2
G|-9---8---6--6-6-8--8-8-6--6-6-8-|
D|--------------------------------|
A|--------------------------------|
E|--------------------------------|


[Chorus]

(Guitar 1)

e|-----------------------------------------------------------------------------------------------------|
B|-9-9-9-9-9-9-9-9-9-9-9-9-9-9-9-9-9-9-9-9-9-9-9-9-9-9-9-9-9-9-9-9-------------------------------------|
G|-9-9-9-9-9-9-9-9-9-9-9-9-9-9-9-9-9-9-9-9-9-9-9-9-9-9-9-9-9-9-9-9-------------------------------------|
D|---------------------------------7-7-7-7-7-7-7-7-7-7-7-7-7-7-7-7-9--9--9--9--9--9--9--9--9--9--9--9--|
A|-7-7-7-7-7-7-7-7-7-7-7-7-7-7-7-7-9-9-9-9-9-9-9-9-9-9-9-9-9-9-9-9-11-11-11-11-11-11-11-11-11-11-11-11-|
E|-0-0-0-0-0-0-0-0-0-0-0-0-0-0-0-0---------------------------------12-12-12-12-12-12-12-12-12-12-12-12-|

e|----------------------------------------------------------|
B|----------------------------------------------------------|
G|----------------------------------------------------------|
D|-9--9--9--11-11-11-11-11-11-11-11-11-11-11-11-11-11-11-11-|
A|-11-11-11-12-12-12-12-12-12-12-12-12-12-12-12-12-12-12-12-|
E|-12-12-12-12-12-12-12-12-12-12-12-12-12-12-12-12-12-12-12-|

e|-----------------------------------------------------------------------------------------------------|
B|-9-9-9-9-9-9-9-9-9-9-9-9-9-9-9-9-9-9-9-9-9-9-9-9-9-9-9-9-9-9-9-9-------------------------------------|
G|-9-9-9-9-9-9-9-9-9-9-9-9-9-9-9-9-9-9-9-9-9-9-9-9-9-9-9-9-9-9-9-9-------------------------------------|
D|-----------------------------------------------------------------9--9--9--9--9--9--9--9--9--9--9--9--|
A|-7-7-7-7-7-7-7-7-7-7-7-7-7-7-7-7-6-6-6-6-6-6-6-6-6-6-6-6-6-6-6-6-11-11-11-11-11-11-11-11-11-11-11-11-|
E|-0-0-0-0-0-0-0-0-0-0-0-0-0-0-0-0---------------------------------12-12-12-12-12-12-12-12-12-12-12-12-|

e|----------------------------------------------------------|
B|----------------------------------------------------------| x1
G|----------------------------------------------------------|
D|-9--9--9--11-11-11-11-11-11-11-11-11-11-11-11-11-11-11-11-|
A|-11-11-11-12-12-12-12-12-12-12-12-12-12-12-12-12-12-12-12-|
E|-12-12-12-12-12-12-12-12-12-12-12-12-12-12-12-12-12-12-12-|

e|---------------------------------|
B|---------------------------------| Played x2 after the second chorus
G|---------------------------------|
D|-9-9-9-9-9-9-9-9-9-9-9-9-9-9-9-9-|
A|-9-9-9-9-9-9-9-9-9-9-9-9-9-9-9-9-|
E|-7-7-7-7-7-7-7-7-7-7-7-7-7-7-7-7-|

(Guitar 2)

e|-12-12-12-12-12-12-12-12-12-12-12-12-12-12-12-12-11-11-11-11-11-11-11-11-11-11-11-11-11-11-11-11-14-14-|
B|-12-12-12-12-12-12-12-12-12-12-12-12-12-12-12-12-12-12-12-12-12-12-12-12-12-12-12-12-12-12-12-12-12-12-|
G|-13-13-13-13-13-13-13-13-13-13-13-13-13-13-13-13-11-11-11-11-11-11-11-11-11-11-11-11-11-11-11-11-13-13-|
D|-------------------------------------------------------------------------------------------------------|
A|-------------------------------------------------------------------------------------------------------|
E|-------------------------------------------------------------------------------------------------------|

e|-14-14-14-14-14-14-14-14-14-14-14-14-14-14-|
B|-12-12-12-12-12-12-12-12-12-12-12-12-12-12-|
G|-13-13-13-13-13-13-13-13-13-13-13-13-13-13-|
D|-------------------------------------------|
A|-------------------------------------------|
E|-------------------------------------------|

e|-12-12-12-12-12-12-12-12-12-12-12-12-12-12-12-12-|
B|-14-14-14-14-14-14-14-14-14-14-14-14-14-14-14-14-| x2
G|-14-14-14-14-14-14-14-14-14-14-14-14-14-14-14-14-|
D|-------------------------------------------------|
A|-------------------------------------------------|
E|-------------------------------------------------|

e|-------------------------------------------------|
B|-------------------------------------------------| Played x2 after the second chorus
G|-16-16-16-16-16-16-16-16-16-16-16-16-16-16-16-16-|
D|-------------------------------------------------|
A|-14-14-14-14-14-14-14-14-14-14-14-14-14-14-14-14-|
E|-------------------------------------------------|


[2nd Pre-chorus]

(Guitar 1)

P.M.----------------------------------------------------------------------------------------------------|
e|--------------------------------------------------------------------------------------------------------|
B|--------------------------------------------------------------------------------------------------------|
G|--------------------------------------------------------------------------------------------------------|
D|--------------------------------------------------------------------------------------------------------|
A|-7-7-7-7-7-7-7-7-7-7-7-7-7-7-7-7-6-6-6-6-6-6-6-6-6-6-6-6-6-6-6-6-4-4-4-4-4-4-4-4-6-6-6-6-6-6-6-6-4-4-4--|
E|-9-9-9-9-9-9-9-9-9-9-9-9-9-9-9-9-7-7-7-7-7-7-7-7-7-7-7-7-7-7-7-7-5-5-5-5-5-5-5-5-5-5-5-5-5-5-5-5-5-5-5--|

P.M.------------------------|
e|---------------------------|
B|---------------------------|
G|---------------------------|
D|---------------------------|
A|-4-4-4-4-4-6-6-6-6-6-6-6-6-|
E|-5-5-5-5-5-5-5-5-5-5-5-5-5-|

P.M.----------------------------------------------------------------------------------------------------|
e|-------------------------------------------------------------------------------------------------------|
B|-------------------------------------------------------------------------------------------------------|
G|-----------------------------------------------------------------6-6-6-6-6-6-6-6-8-8-8-8-8-8-8-8-9-9-9-|
D|-------------------------------------------------------------------------------------------------------|
A|-7-7-7-7-7-7-7-7-7-7-7-7-7-7-7-7-6-6-6-6-6-6-6-6-6-6-6-6-6-6-6-6-4-4-4-4-4-4-4-4-6-6-6-6-6-6-6-6-7-7-7-|
E|-9-9-9-9-9-9-9-9-9-9-9-9-9-9-9-9-7-7-7-7-7-7-7-7-7-7-7-7-7-7-7-7---------------------------------------|

e|-----------------------------------|
B|-----------------------------------|
G|-9-9-9-9-9-11-11-11-11-11-11-11-11-|
D|-----------------------------------|
A|-7-7-7-7-7-9--9--9--9--9--9--9--9--|
E|-----------------------------------|


(Guitar 2)

(Play the same as the first pre-chorus only palm muted then on "You're a much better man than me"):

e|-------------------------------------------------------------------------|
B|-------------------------------------------------------------------------|
G|-6-6-6-6-6-6-6-6-8-8-8-8-8-8-8-8-9-9-9-9-9-9-9-9-11-11-11-11-11-11-11-11-|
D|-------------------------------------------------------------------------|
A|-4-4-4-4-4-4-4-4-6-6-6-6-6-6-6-6-7-7-7-7-7-7-7-7-9--9--9--9--9--9--9--9--|
E|-------------------------------------------------------------------------|


[Bridge]

(Guitar 1)

e|--------------------------------------------------------------------|
B|--------------------------------------------------------------------|
G|-9-9-9-9-9-9-9-9-8-8-8-8-8-8-8-8-9-9-9-11-9-8-6-4--9-9-9-11-9-8-6-4-|
D|-9-9-9-9-9-9-9-9-9-9-9-9-9-9-9-9-6-6-6-7--6-4-2-1--6-6-6-7--6-4-2-1-|
A|-7-7-7-7-7-7-7-7-7-7-7-7-7-7-7-7-7-7-7-9--7-6-4-2--7-7-7-9--7-6-4-2-|
E|--------------------------------------------------------------------|

(Guitar 2)

e|--------------------------------------------------------------------|
B|--------------------------------------------------------------------|
G|-9-9-9-9-9-9-9-9-8-8-8-8-8-8-8-8-9-9-9-11-9-8-6-4--9-9-9-11-9-8-6-4-|
D|-9-9-9-9-9-9-9-9-9-9-9-9-9-9-9-9------------------------------------|
A|-7-7-7-7-7-7-7-7-7-7-7-7-7-7-7-7-7-7-7-9--7-6-4-2--7-7-7-9--7-6-4-2-|
E|--------------------------------------------------------------------|


[Pre-Outro]

(Guitar 1)

e|------------------------------------|
B|------------------------------------|
G|------------------------------------|   (Picked lightly with fingers)
D|------------------------------------|
A|-11--------12----11----11--------12-|
E|-12--------12----12----12--------12-|


[Outro]

(Guitar 1)

e|---------------------------------------------------------------------------------------------------------|
B|-9-9-9-9-9-9-9-9-9-9-9-9-9-9-9-9-9-9-9-9-9-9-9-9-9-9-9-9-9-9-9-9-----------------------------------------|
G|-9-9-9-9-9-9-9-9-9-9-9-9-9-9-9-9-9-9-9-9-9-9-9-9-9-9-9-9-9-9-9-9-----------------------------------------|
D|-----------------------------------------------------------------9--9--9--9--9--9--9--9--9--9--9--9--9---|
A|-7-7-7-7-7-7-7-7-7-7-7-7-7-7-7-7-6-6-6-6-6-6-6-6-6-6-6-6-6-6-6-6-11-11-11-11-11-11-11-11-11-11-11-11-11--|
E|-0-0-0-0-0-0-0-0-0-0-0-0-0-0-0-0---------------------------------12-12-12-12-12-12-12-12-12-12-12-12-12--|

e|-------------------------------------------------------|
B|-------------------------------------------------------| 
G|-------------------------------------------------------|
D|-9--9--11-11-11-11-11-11-11-11-11-11-11-11-11-11-11-11-|
A|-11-11-12-12-12-12-12-12-12-12-12-12-12-12-12-12-12-12-|
E|-12-12-12-12-12-12-12-12-12-12-12-12-12-12-12-12-12-12-|

e|----------------|
B|----------------| 
G|-14-14-14-14--9-|
D|-11-11-11-11--6-|
A|-12-12-12-12--7-|
E|-0--0--0--0---0-|

(Guitar 2)

e|-12-12-12-12-12-12-12-12-12-12-12-12-12-12-12-12-11-11-11-11-11-11-11-11-11-11-11-11-11-11-11-11-14-14-|
B|-12-12-12-12-12-12-12-12-12-12-12-12-12-12-12-12-12-12-12-12-12-12-12-12-12-12-12-12-12-12-12-12-12-12-|
G|-13-13-13-13-13-13-13-13-13-13-13-13-13-13-13-13-11-11-11-11-11-11-11-11-11-11-11-11-11-11-11-11-13-13-|
D|-------------------------------------------------------------------------------------------------------|
A|-------------------------------------------------------------------------------------------------------|
E|-------------------------------------------------------------------------------------------------------|

e|-14-14-14-14-14-14-14-14-14-14-14-14-14-14-14-|
B|-12-12-12-12-12-12-12-12-12-12-12-12-12-12-12-|
G|-13-13-13-13-13-13-13-13-13-13-13-13-13-13-13-|
D|----------------------------------------------|
A|----------------------------------------------|
E|----------------------------------------------|

e|-12-12-12-12-12-12-12-12-12-12-12-12-12-12-12-12-----------------|
B|-14-14-14-14-14-14-14-14-14-14-14-14-14-14-14-14-----------------|
G|-14-14-14-14-14-14-14-14-14-14-14-14-14-14-14-14--14-14-14-14--9-|
D|--------------------------------------------------11-11-11-11--6-|
A|--------------------------------------------------12-12-12-12--7-|
E|--------------------------------------------------0--0--0--0---0-|


Song order:
[Intro/Interlude]
[Verse]
[1st Pre-Chorus]
[Intro/Interlude]
[Chorus]
[Verse]
[2nd Pre-Chorus]
[Chorus]
[Bridge]
[Pre-Outro]
[Intro/Interlude]
[Outro]

Lyrics:

{Intro/Interlude]
So. Give up. On her. Again.

[Verse 1]
So Long, brother. Don't go crawling into her arms.
Your hands are shaking. You are everything that she's not.

[Pre-Chorus]
The wrong street, or a long queue. Good fortune was never your thing.
But sunshine, I couldn't blame you. You're a much better man than me.

[Chorus]
And yeah the night is still young, but the day is So Long.
And you wished you stayed at home, yeah you wished you'd never come.
And I can see you thinking about her, till your soul's been took.
And you wish you'd never seen her, yeah you wish you'd never looked.
Yeah you wish you'd never looked.

[Verse 2]
Calm down, you're acting like a stranger. Won't you sit down and sip on your gin.
You've gotta know how. Do me a favour, to finish you've got to begin.

[Bridge]
I see you looking at her, but you don't read the signs.
I see you looking at her, but you don't read the signs.

[Pre-Outro]
No you don't read the signs.

[Outro]
And I can see you thinking about her, till your soul's been took.
And you wish you'd never seen her, yeah you wish you'd never looked.
Suggest correction
Creating personal tab
Creating personal tab
You can edit any tab online and save it as your Personal.

You can edit, replace or remove any tab part or add personal notes – all changes will be seen only by you.

Personal tabs can be accessed anytime from any device, even offline.
Learn more »
Give kudos to tab author, rate the tab!
1 2 3 4 5
comments
print report bad tab
guest
You may want to rate the tab now too:
select rating
Wanna post a correction for this tab? Suggest correction