Oops, an error
Loading. Please wait.

Remnants Left Tab

version 1
version 1

Whole song

Interactive

1,572 views 1 this week
no commentswrite comment
1 2 3 4 5
1 last vote to show rating
add to favorites
launch autoscroll
font size
0
reset
how to read this tab
guitar tuner
Autoscroll
slow
fast
+/-
esc
set tempo
stop
Help us to improve Ultimate-Guitar.com Take our survey!
×
Author
Difficulty
Tuning
intermediate
C G C F A D
-------------------------------------------------------------------------------
Circle of Contempt : Remnants Left (Rhythm Guitar)
-------------------------------------------------------------------------------

Tabbed by: Foster (bornofmaya)
Website: http://www.last.fm/user/bornofmaya
Notes: I will be posting a full GP tab with both guitars soon.


Riff 1

|-------|-------------------------------|-------------------------------|
|-------|-------------------------------|-------------------------------|
|-------|-------------------------------|-------------------------------|
|-------|--------------1----------------|---------------1-------------4-|
|-------|-------------------------------|-------------------------------|
|-------|--0--1---0---------0---0----0--|--1--0---0--------0----0--1----|

      
|-------------------------------|-------------------------------------|-----|
|-------------------------------|----------------------------------5--|-----|
|-------------------------------|----------------------------------8--|-----|
|--------------1----------------|---------------1-------------4-------|-----|
|-------------------------------|-------------------------------------|-----|
|--0--1---0---------0---0----0--|--1--0---0--------0----0--1----------|-----|


Riff 2
Repeat: x2

|---------------------------------------|
|----------------------------------4----|
|----------------------------------7----|
|--------------1------------------------|
|---------------------------------------|
|--0--1---0---------0---0----0--1-------|


|------------------------------------------|
|------------------------------------------|
|------------------------------------------|
|--------------1---------------------------|
|------------------------------------------|
|--0--1---0---------0---0----0--2^---------|


Breakdown

|-----------------------|
|-----------------------|
|-----------------------|
|--0--------------------|
|--0--------0---0--0----|
|--0--------0---0--0----|


Pattern: A x3, B

A
|----------------------|--------------------|
|----------------------|--------------------|
|----------------------|--------------------|
|----------------------|--------------------|
|----------------------|--------------------|
|--0000--00--00--0--0--|--0-0-0--00--00--0--|

B    
|-----------------------------|----|
|-----------------------------|----|
|-----------------------------|----|
|-----------------------------|----|
|-----------------------------|----|
|--0000--00--00--0--0--0-0-0--|----|


|----------------------|---------------------|
|----------------------|---------------------|
|----------------------|---------------------|
|----------------------|---------------------|
|----------------------|---------------------|
|--0000--00--00--0--0--|--0-0-0--00--00--1^--|


|---------------------|--------------------|
|---------------------|--------------------|
|---------------------|--------------------|
|---------------------|--------------------|
|---------------------|--------------------|
|--0000--00--00--1^---|--0-0-0--00--00--0--|


|----------------------|---------------------------|
|----------------------|---------------------------|
|----------------------|---------------------------|
|----------------------|---------------------------|
|----------------------|---------------------------|
|--0000--00--00--0--0--|--0-0-0--00--00--1^--0000--|


|-------------------------------|
|-------------------------------|
|-------------------------------|
|----------------------3h6------|
|-----2------------2h5----------|
|--------6--3--00-----------1^--|


Pattern: A, B, A, C

A
|---------------------------------------|
|----------------------------------4----|
|----------------------------------7----|
|--------------1------------------------|
|---------------------------------------|
|--0--1---0---------0---0----0--1-------|


B
|------------------------------------------|
|------------------------------------------|
|------------------------------------------|
|--------------1---------------------------|
|------------------------------------------|
|--0--1---0---------0---0----0--2^---------|


C
|-------------------------------|--------------------|
|-------------------------------|--------------------|
|-------------------------------|--------------------|
|--------------1----------------|--------------------|
|-------------------------------|--------------------|
|--0--1---0---------0---0----0--|--0----0--1--12\----|

          
|-------------------|
|-------------------|
|--9----------------|
|--7----------------|
|--7----------------|
|-------------------|

Riff 3
Pattern: A x2, B, C

A
|-------------------------------------------|
|-------------------------------------------|
|-------------------------------------------|
|-------------------------------------------|
|--77--77--7---77---77--7--777---77--5--55--|
|--77--77--7---77---77--7--777---77--5--55--|


|-------------------------------------------|
|-------------------------------------------|
|-------------------------------------------|
|-------------------------------------------|
|--33--33--3---33---33--3--333---33--5--55--|
|--33--33--3---33---33--3--333---33--5--55--|


B
|-------------------------------------------|
|-------------------------------------------|
|-------------------------------------------|
|-------------------------------------------|
|--00--00--0---00---00--0--000---00--0--00--|
|--00--00--0---00---00--0--000---00--0--00--|


|-------------------------------------------|
|-------------------------------------------|
|-------------------------------------------|
|-------------------------------------------|
|--33--33--3---33---33--3--333---33--5--55--|
|--33--33--3---33---33--3--333---33--5--55--|

   
C
|---------------------------|
|---------------------------|
|---------------------------|
|---------------------------|
|--33--33--3---33---3-------|
|--33--33--3---33---3--12\--|


Break
Pattern: A x2, B

A
|-------------------------------------------|
|-------------------------------------------|
|-------------------------------------------|
|-------------------------------------------|
|--00--00--0---00---00--0--000---00--0--00--|
|--11--11--1---11---11--1--111---11--1--11--|


B
|--------------------------------------------------|
|--------------------------------------------------|
|--------------------------------------------------|
|--0------0--------0-------0------0---------0------|
|-----00-----0000-----000-----00-----00000-----00--|
|-----11-----1111-----111-----11-----11111-----11--|

 
|---------------------------|
|---------------------------|
|---------------5h-8p-5-----|
|----------4h-7---------7---|
|---------------------------|
|--0--1-0-------------------|


Pattern: A x2, B

A
|-------------------------------------------|
|-------------------------------------------|
|-------------------------------------------|
|-------------------------------------------|
|--00--00--0---00---00--0--000---00--0--00--|
|--11--11--1---11---11--1--111---11--1--11--|


B
|---------------------------------------------------------|
|---------------------------------------------------------|
|---------------------------------------------------------|
|--0------0--------0-------0------0---------0-------------|
|-----00-----0000-----000-----00-----00000-----00---------|
|-----11-----1111-----111-----11-----11111-----11--0--1^--|


Riff 4
Repeat: x2

|-----------------------------------|
|-----------------------------------|
|-----------------------------------|
|--7-7-7-7-7-7-7-7-7-7-7-7-7-7-7-7--|
|--7-7-7-7-7-7-7-7-7-7-7-7-7-7-7-7--|
|--7-7-7-7-7-7-7-7-7-7-7-7-7-7-7-7--|


|-----------------------------------|
|-----------------------------------|
|-----------------------------------|
|--3-3-3-3-3-3-3-3-3-3-3-3-3-3-5-5--|
|--3-3-3-3-3-3-3-3-3-3-3-3-3-3-5-5--|
|--3-3-3-3-3-3-3-3-3-3-3-3-3-3-5-5--|


Repeat: x2

|-------------------------------------------|
|-------------------------------------------|
|-------------------------------------------|
|-------------------------------------------|
|--00--00--0---00---00--0--000---00--0--00--|
|--00--00--0---00---00--0--000---00--0--00--|


|-------------------------------------------|
|-------------------------------------------|
|-------------------------------------------|
|-------------------------------------------|
|--33--33--3---33---33--3--333---33--5--55--|
|--33--33--3---33---33--3--333---33--5--55--|


Ending
            
|-------------------|
|-------------------|
|-------------------|
|--7----------------|
|--7----------------|
|--7----------------|
Suggest correction
Give kudos to tab author, rate the tab!
1 2 3 4 5
comments
print report bad tab
guest
You may want to rate the tab now too:
select rating
Wanna post a correction for this tab? Suggest correction