Oops, an error
Loading. Please wait.

Telltale Crime tab

16 views 3 this week
no commentswrite comment
1 2 3 4 5
3 more votes to show rating
add to favorites
×
Save as Personal and add changes to this tab that will be seen only by you. Learn more ›
×
You can save this tab as Personal to edit and correct it or add notes. All changes will be seen only by you. Learn more »
launch autoscroll
font size
0
reset
how to read this tab
guitar tuner
edit
Autoscroll
slow
fast
+/-
esc
set tempo
stop
About this tab version
Simplified Guitar tab with repeated riffs. Please rate or comment. Was this info helpful? Yes No
Circle of Dust - Telltate Crime
Tuning: Standard
Effects: add heavy distortion, like Ministry
tabbed by jjhand



[Main Riff]

e|----------------------------------------------------|
B|----------------------------------------------------|
G|----------------------------------------------------|  Play throughout Intro and Verse
D|--------------------------12-----------------12-----|
A|-----------8--7-----------10-----------------10-----|
E|-10-10--9--------0--0--0------0--0--0--0--0------0--|
                  PM PM PM     PM PM PM PM PM     PM


[Chorus]
   (1:44)
e|-------------------------------------------------|
B|-------------------------------------------------|
G|-------------------------------------------------|  Play 4x
D|-------------------------------------------------|  Bass plays low note in chords  
A|-5--5--3--5--5--3--5-----5--3--5-----5--3--6-----|
E|-5--5--3--5--5--3--5-----5--3--5-----5--3--6-----|


The next few sections are the same riffs again:

  (1:52 to 2:18)  Continue Playing Main Riff (Verse 2)

  Play Chorus Again until 2:28 

  (2:31 - 2:48) Main Riff

  Play Chorus Again until 3:03 

  (3:05 - 3:23) Main Riff (Verse 3)

  Play Chorus Again until 3:31 

  (3:31 - End) Main Riff (Outro)


[Ending]
e|--------------------------|
B|--------------------------|
G|--------------------------|
D|--------------------------|
A|-----------8--7-----------|
E|-10-10--9--------0--0--0--|



************************************

| PM  Palm mute

************************************

            
            
Suggest correction
Creating personal tab
Creating personal tab
You can edit any tab online and save it as your Personal.

You can edit, replace or remove any tab part or add personal notes – all changes will be seen only by you.

Personal tabs can be accessed anytime from any device, even offline.
Learn more »
Give kudos to tab author, rate the tab!
1 2 3 4 5
comments
print report bad tab
guest
You may want to rate the tab now too:
select rating
Wanna post a correction for this tab? Suggest correction