Oops, an error
Loading. Please wait.

A Crater To Cough In intro tab

version 4
version 4
4,053 views 1 this week
5 commentsread comments
1 2 3 4 5
x 6
add to favorites
×
Save as Personal and add changes to this tab that will be seen only by you. Learn more ›
×
You can save this tab as Personal to edit and correct it or add notes. All changes will be seen only by you. Learn more »
launch autoscroll
font size
0
reset
how to read this tab
guitar tuner
edit
Autoscroll
slow
fast
+/-
esc
set tempo
stop
Difficulty
This song intro is pretty easy and straight forward.
All the tabs I've seen on here were all wrong, and I'm nearly 100% positive this is correct.

E----7--5--7--------3--5--3-----5p3--|
B-------------5--5-------------------|
G---------------------------0--------|
D------------------------------------|
A------------------------------------|
E------------------------------------|
play till 2:50
then
E----5--3--0--0h3--3--0--3--0--|
B------------------------------|
G------------------------------|
D------------------------------|
A------------------------------|
E------------------------------|  x1

E----0h5--0--0h3--3--0--3--0---|
B------------------------------|
G------------------------------|
D------------------------------|
A------------------------------|
E------------------------------|
Play till 4:20


-tabs by Spockguy

Enjoy

            
            
Suggest correction
Creating personal tab
Creating personal tab
You can edit any tab online and save it as your Personal.

You can edit, replace or remove any tab part or add personal notes – all changes will be seen only by you.

Personal tabs can be accessed anytime from any device, even offline.
Learn more »
comments
print report bad tab
5 comments total. Showing first comments.
+2 reply
Winter Solstice 669 Mar 31, 2008 04:20 PM

E----7--5--7--------3--5--3-----3/2--|
B-------------5--5-------------------|
G---------------------------0--------|
D------------------------------------|
A------------------------------------|
E------------------------------------|

To be honoust I think this sounds a bit better. But it could be just me though.

+1 reply
richrawr 40 Apr 26, 2008 04:37 AM

goood tab

+1 reply
Nick_a_ma_phone 10 Aug 17, 2009 11:28 AM

ok guys, this is how that shit goes

E----------0-0---------------------0-|
B-12-10-12-----8-10-8---8-7----7-8---|
G---------------------0--------------|
D------------------------------------|
A------------------------------------|
E------------------------------------|

guest
Wanna post a correction for this tab? Suggest correction